ISO-10303-21;
HEADER;
FILE_DESCRIPTION(('FreeCAD Model'),'2;1');
FILE_NAME('Open CASCADE Shape Model','2025-04-29T19:25:07',('FreeCAD'),(
    'FreeCAD'),'Open CASCADE STEP processor 7.6','FreeCAD','Unknown');
FILE_SCHEMA(('AUTOMOTIVE_DESIGN { 1 0 10303 214 1 1 1 1 }'));
ENDSEC;
DATA;
#1 = APPLICATION_PROTOCOL_DEFINITION('international standard',
  'automotive_design',2000,#2);
#2 = APPLICATION_CONTEXT(
  'core data for automotive mechanical design processes');
#3 = SHAPE_DEFINITION_REPRESENTATION(#4,#10);
#4 = PRODUCT_DEFINITION_SHAPE('','',#5);
#5 = PRODUCT_DEFINITION('design','',#6,#9);
#6 = PRODUCT_DEFINITION_FORMATION('','',#7);
#7 = PRODUCT('Open CASCADE STEP translator 7.6 1',
  'Open CASCADE STEP translator 7.6 1','',(#8));
#8 = PRODUCT_CONTEXT('',#2,'mechanical');
#9 = PRODUCT_DEFINITION_CONTEXT('part definition',#2,'design');
#10 = ADVANCED_BREP_SHAPE_REPRESENTATION('',(#11,#15),#298);
#11 = AXIS2_PLACEMENT_3D('',#12,#13,#14);
#12 = CARTESIAN_POINT('',(0.,0.,0.));
#13 = DIRECTION('',(0.,0.,1.));
#14 = DIRECTION('',(1.,0.,-0.));
#15 = MANIFOLD_SOLID_BREP('',#16);
#16 = CLOSED_SHELL('',(#17,#69,#89,#112,#164,#184,#222,#260));
#17 = ADVANCED_FACE('',(#18),#50,.F.);
#18 = FACE_BOUND('',#19,.F.);
#19 = EDGE_LOOP('',(#20,#32,#39,#49));
#20 = ORIENTED_EDGE('',*,*,#21,.F.);
#21 = EDGE_CURVE('',#22,#22,#24,.T.);
#22 = VERTEX_POINT('',#23);
#23 = CARTESIAN_POINT('',(0.,2.596614101092,7.835664905059));
#24 = ( BOUNDED_CURVE() B_SPLINE_CURVE(2,(#25,#26,#27,#28,#29,#30,#31),
.UNSPECIFIED.,.T.,.F.) B_SPLINE_CURVE_WITH_KNOTS((1,2,2,2,2,1),(
    -2.094395102393,0.,2.094395102393,4.188790204786,6.28318530718,
8.377580409573),.UNSPECIFIED.) CURVE() GEOMETRIC_REPRESENTATION_ITEM() 
RATIONAL_B_SPLINE_CURVE((1.,0.5,1.,0.5,1.,0.5,1.)) REPRESENTATION_ITEM(
  '') );
#25 = CARTESIAN_POINT('',(0.,2.596614101092,7.835664905059));
#26 = CARTESIAN_POINT('',(13.571769726646,2.596614101092,7.835664905059)
  );
#27 = CARTESIAN_POINT('',(6.785884863323,2.596614101092,-3.917832452529)
  );
#28 = CARTESIAN_POINT('',(1.919184389034E-15,2.596614101092,
    -15.67132981011));
#29 = CARTESIAN_POINT('',(-6.785884863323,2.596614101092,-3.917832452529
    ));
#30 = CARTESIAN_POINT('',(-13.57176972664,2.596614101092,7.835664905059)
  );
#31 = CARTESIAN_POINT('',(0.,2.596614101092,7.835664905059));
#32 = ORIENTED_EDGE('',*,*,#33,.T.);
#33 = EDGE_CURVE('',#22,#34,#36,.T.);
#34 = VERTEX_POINT('',#35);
#35 = CARTESIAN_POINT('',(0.,0.,7.835664905059));
#36 = B_SPLINE_CURVE_WITH_KNOTS('',1,(#37,#38),.UNSPECIFIED.,.F.,.F.,(2,
    2),(1.016,3.175),.PIECEWISE_BEZIER_KNOTS.);
#37 = CARTESIAN_POINT('',(9.595921945171E-16,2.596614101092,
    7.835664905059));
#38 = CARTESIAN_POINT('',(9.595921945171E-16,0.,7.835664905059));
#39 = ORIENTED_EDGE('',*,*,#40,.T.);
#40 = EDGE_CURVE('',#34,#34,#41,.T.);
#41 = ( BOUNDED_CURVE() B_SPLINE_CURVE(2,(#42,#43,#44,#45,#46,#47,#48),
.UNSPECIFIED.,.T.,.F.) B_SPLINE_CURVE_WITH_KNOTS((1,2,2,2,2,1),(
    -2.094395102393,0.,2.094395102393,4.188790204786,6.28318530718,
8.377580409573),.UNSPECIFIED.) CURVE() GEOMETRIC_REPRESENTATION_ITEM() 
RATIONAL_B_SPLINE_CURVE((1.,0.5,1.,0.5,1.,0.5,1.)) REPRESENTATION_ITEM(
  '') );
#42 = CARTESIAN_POINT('',(0.,0.,7.835664905059));
#43 = CARTESIAN_POINT('',(13.571769726646,0.,7.835664905059));
#44 = CARTESIAN_POINT('',(6.785884863323,0.,-3.917832452529));
#45 = CARTESIAN_POINT('',(1.919184389034E-15,0.,-15.67132981011));
#46 = CARTESIAN_POINT('',(-6.785884863323,0.,-3.917832452529));
#47 = CARTESIAN_POINT('',(-13.57176972664,0.,7.835664905059));
#48 = CARTESIAN_POINT('',(0.,0.,7.835664905059));
#49 = ORIENTED_EDGE('',*,*,#33,.F.);
#50 = ( BOUNDED_SURFACE() B_SPLINE_SURFACE(2,1,(
    (#51,#52)
    ,(#53,#54)
    ,(#55,#56)
    ,(#57,#58)
    ,(#59,#60)
    ,(#61,#62)
    ,(#63,#64)
    ,(#65,#66)
,(#67,#68
    )),.UNSPECIFIED.,.T.,.F.,.F.) B_SPLINE_SURFACE_WITH_KNOTS((3,2,2,2,3
    ),(2,2),(3.14159265359,4.188790204786,6.28318530718,8.377580409573,
    9.424777960769),(1.016,3.175),.UNSPECIFIED.) 
GEOMETRIC_REPRESENTATION_ITEM() RATIONAL_B_SPLINE_SURFACE((
    (0.75,0.75)
    ,(0.75,0.75)
    ,(1.,1.)
    ,(0.5,0.5)
    ,(1.,1.)
    ,(0.5,0.5)
    ,(1.,1.)
    ,(0.75,0.75)
,(0.75,0.75))) REPRESENTATION_ITEM('') SURFACE() );
#51 = CARTESIAN_POINT('',(3.56068644261E-16,2.596614101092,
    7.835664905059));
#52 = CARTESIAN_POINT('',(3.56068644261E-16,0.,7.835664905059));
#53 = CARTESIAN_POINT('',(-4.523923242215,2.596614101092,7.835664905059)
  );
#54 = CARTESIAN_POINT('',(-4.523923242215,0.,7.835664905059));
#55 = CARTESIAN_POINT('',(-6.785884863323,2.596614101092,3.917832452529)
  );
#56 = CARTESIAN_POINT('',(-6.785884863323,0.,3.917832452529));
#57 = CARTESIAN_POINT('',(-13.57176972664,2.596614101092,-7.835664905059
    ));
#58 = CARTESIAN_POINT('',(-13.57176972664,0.,-7.835664905059));
#59 = CARTESIAN_POINT('',(0.,2.596614101092,-7.835664905059));
#60 = CARTESIAN_POINT('',(0.,0.,-7.835664905059));
#61 = CARTESIAN_POINT('',(13.571769726646,2.596614101092,-7.835664905059
    ));
#62 = CARTESIAN_POINT('',(13.571769726646,0.,-7.835664905059));
#63 = CARTESIAN_POINT('',(6.785884863323,2.596614101092,3.917832452529)
  );
#64 = CARTESIAN_POINT('',(6.785884863323,0.,3.917832452529));
#65 = CARTESIAN_POINT('',(4.523923242215,2.596614101092,7.835664905059)
  );
#66 = CARTESIAN_POINT('',(4.523923242215,0.,7.835664905059));
#67 = CARTESIAN_POINT('',(3.56068644261E-16,2.596614101092,
    7.835664905059));
#68 = CARTESIAN_POINT('',(3.56068644261E-16,0.,7.835664905059));
#69 = ADVANCED_FACE('',(#70),#84,.T.);
#70 = FACE_BOUND('',#71,.T.);
#71 = EDGE_LOOP('',(#72));
#72 = ORIENTED_EDGE('',*,*,#73,.T.);
#73 = EDGE_CURVE('',#74,#74,#76,.T.);
#74 = VERTEX_POINT('',#75);
#75 = CARTESIAN_POINT('',(0.,3.818550148664,7.835664905059));
#76 = ( BOUNDED_CURVE() B_SPLINE_CURVE(2,(#77,#78,#79,#80,#81,#82,#83),
.UNSPECIFIED.,.T.,.F.) B_SPLINE_CURVE_WITH_KNOTS((1,2,2,2,2,1),(
    -2.094395102393,0.,2.094395102393,4.188790204786,6.28318530718,
8.377580409573),.UNSPECIFIED.) CURVE() GEOMETRIC_REPRESENTATION_ITEM() 
RATIONAL_B_SPLINE_CURVE((1.,0.5,1.,0.5,1.,0.5,1.)) REPRESENTATION_ITEM(
  '') );
#77 = CARTESIAN_POINT('',(0.,3.818550148664,7.835664905059));
#78 = CARTESIAN_POINT('',(13.571769726646,3.818550148664,7.835664905059)
  );
#79 = CARTESIAN_POINT('',(6.785884863323,3.818550148664,-3.917832452529)
  );
#80 = CARTESIAN_POINT('',(1.919184389034E-15,3.818550148664,
    -15.67132981011));
#81 = CARTESIAN_POINT('',(-6.785884863323,3.818550148664,-3.917832452529
    ));
#82 = CARTESIAN_POINT('',(-13.57176972664,3.818550148664,7.835664905059)
  );
#83 = CARTESIAN_POINT('',(0.,3.818550148664,7.835664905059));
#84 = B_SPLINE_SURFACE_WITH_KNOTS('',1,1,(
    (#85,#86)
    ,(#87,#88
    )),.UNSPECIFIED.,.F.,.F.,.F.,(2,2),(2,2),(-6.5151,6.5151),(-6.5151,
    6.5151),.PIECEWISE_BEZIER_KNOTS.);
#85 = CARTESIAN_POINT('',(-7.835664905059,3.818550148664,-7.835664905059
    ));
#86 = CARTESIAN_POINT('',(7.835664905059,3.818550148664,-7.835664905059)
  );
#87 = CARTESIAN_POINT('',(-7.835664905059,3.818550148664,7.835664905059)
  );
#88 = CARTESIAN_POINT('',(7.835664905059,3.818550148664,7.835664905059)
  );
#89 = ADVANCED_FACE('',(#90,#104),#107,.F.);
#90 = FACE_BOUND('',#91,.T.);
#91 = EDGE_LOOP('',(#92));
#92 = ORIENTED_EDGE('',*,*,#93,.T.);
#93 = EDGE_CURVE('',#94,#94,#96,.T.);
#94 = VERTEX_POINT('',#95);
#95 = CARTESIAN_POINT('',(0.,0.,8.293890922898));
#96 = ( BOUNDED_CURVE() B_SPLINE_CURVE(2,(#97,#98,#99,#100,#101,#102,
#103),.UNSPECIFIED.,.T.,.F.) B_SPLINE_CURVE_WITH_KNOTS((1,2,2,2,2,1),(
    -2.094395102393,0.,2.094395102393,4.188790204786,6.28318530718,
8.377580409573),.UNSPECIFIED.) CURVE() GEOMETRIC_REPRESENTATION_ITEM() 
RATIONAL_B_SPLINE_CURVE((1.,0.5,1.,0.5,1.,0.5,1.)) REPRESENTATION_ITEM(
  '') );
#97 = CARTESIAN_POINT('',(0.,0.,8.293890922898));
#98 = CARTESIAN_POINT('',(-14.36544047089,0.,8.293890922898));
#99 = CARTESIAN_POINT('',(-7.182720235447,0.,-4.146945461449));
#100 = CARTESIAN_POINT('',(-2.031417394241E-15,0.,-16.58778184579));
#101 = CARTESIAN_POINT('',(7.182720235447,0.,-4.146945461449));
#102 = CARTESIAN_POINT('',(14.365440470894,0.,8.293890922898));
#103 = CARTESIAN_POINT('',(0.,0.,8.293890922898));
#104 = FACE_BOUND('',#105,.T.);
#105 = EDGE_LOOP('',(#106));
#106 = ORIENTED_EDGE('',*,*,#40,.T.);
#107 = B_SPLINE_SURFACE_WITH_KNOTS('',1,1,(
    (#108,#109)
    ,(#110,#111
  )),.UNSPECIFIED.,.F.,.F.,.F.,(2,2),(2,2),(-6.8961,6.8961),(-6.8961,
    6.8961),.PIECEWISE_BEZIER_KNOTS.);
#108 = CARTESIAN_POINT('',(-8.293890922898,0.,-8.293890922898));
#109 = CARTESIAN_POINT('',(8.293890922898,0.,-8.293890922898));
#110 = CARTESIAN_POINT('',(-8.293890922898,0.,8.293890922898));
#111 = CARTESIAN_POINT('',(8.293890922898,0.,8.293890922898));
#112 = ADVANCED_FACE('',(#113),#145,.T.);
#113 = FACE_BOUND('',#114,.T.);
#114 = EDGE_LOOP('',(#115,#127,#134,#144));
#115 = ORIENTED_EDGE('',*,*,#116,.T.);
#116 = EDGE_CURVE('',#117,#117,#119,.T.);
#117 = VERTEX_POINT('',#118);
#118 = CARTESIAN_POINT('',(0.,0.152742005947,8.446632928845));
#119 = ( BOUNDED_CURVE() B_SPLINE_CURVE(2,(#120,#121,#122,#123,#124,#125
,#126),.UNSPECIFIED.,.T.,.F.) B_SPLINE_CURVE_WITH_KNOTS((1,2,2,2,2,1),(
    -2.094395102393,0.,2.094395102393,4.188790204786,6.28318530718,
8.377580409573),.UNSPECIFIED.) CURVE() GEOMETRIC_REPRESENTATION_ITEM() 
RATIONAL_B_SPLINE_CURVE((1.,0.5,1.,0.5,1.,0.5,1.)) REPRESENTATION_ITEM(
  '') );
#120 = CARTESIAN_POINT('',(0.,0.152742005947,8.446632928845));
#121 = CARTESIAN_POINT('',(14.629997385644,0.152742005947,8.446632928845
    ));
#122 = CARTESIAN_POINT('',(7.314998692822,0.152742005947,-4.223316464422
    ));
#123 = CARTESIAN_POINT('',(2.068828395976E-15,0.152742005947,
    -16.89326585769));
#124 = CARTESIAN_POINT('',(-7.314998692822,0.152742005947,
    -4.223316464422));
#125 = CARTESIAN_POINT('',(-14.62999738564,0.152742005947,8.446632928845
    ));
#126 = CARTESIAN_POINT('',(0.,0.152742005947,8.446632928845));
#127 = ORIENTED_EDGE('',*,*,#128,.F.);
#128 = EDGE_CURVE('',#129,#117,#131,.T.);
#129 = VERTEX_POINT('',#130);
#130 = CARTESIAN_POINT('',(0.,3.207582124878,8.446632928845));
#131 = B_SPLINE_CURVE_WITH_KNOTS('',1,(#132,#133),.UNSPECIFIED.,.F.,.F.,
  (2,2),(0.508,3.048),.PIECEWISE_BEZIER_KNOTS.);
#132 = CARTESIAN_POINT('',(3.103242593965E-15,3.207582124878,
    8.446632928845));
#133 = CARTESIAN_POINT('',(3.103242593965E-15,0.152742005947,
    8.446632928845));
#134 = ORIENTED_EDGE('',*,*,#135,.T.);
#135 = EDGE_CURVE('',#129,#129,#136,.T.);
#136 = ( BOUNDED_CURVE() B_SPLINE_CURVE(2,(#137,#138,#139,#140,#141,#142
,#143),.UNSPECIFIED.,.T.,.F.) B_SPLINE_CURVE_WITH_KNOTS((1,2,2,2,2,1),(
    -2.094395102393,0.,2.094395102393,4.188790204786,6.28318530718,
8.377580409573),.UNSPECIFIED.) CURVE() GEOMETRIC_REPRESENTATION_ITEM() 
RATIONAL_B_SPLINE_CURVE((1.,0.5,1.,0.5,1.,0.5,1.)) REPRESENTATION_ITEM(
  '') );
#137 = CARTESIAN_POINT('',(0.,3.207582124878,8.446632928845));
#138 = CARTESIAN_POINT('',(-14.62999738564,3.207582124878,8.446632928845
    ));
#139 = CARTESIAN_POINT('',(-7.314998692822,3.207582124878,
    -4.223316464422));
#140 = CARTESIAN_POINT('',(-2.068828395976E-15,3.207582124878,
    -16.89326585769));
#141 = CARTESIAN_POINT('',(7.314998692822,3.207582124878,-4.223316464422
    ));
#142 = CARTESIAN_POINT('',(14.629997385644,3.207582124878,8.446632928845
    ));
#143 = CARTESIAN_POINT('',(0.,3.207582124878,8.446632928845));
#144 = ORIENTED_EDGE('',*,*,#128,.T.);
#145 = ( BOUNDED_SURFACE() B_SPLINE_SURFACE(2,1,(
    (#146,#147)
    ,(#148,#149)
    ,(#150,#151)
    ,(#152,#153)
    ,(#154,#155)
    ,(#156,#157)
    ,(#158,#159)
    ,(#160,#161)
,(#162,#163
    )),.UNSPECIFIED.,.T.,.F.,.F.) B_SPLINE_SURFACE_WITH_KNOTS((3,2,2,2,3
    ),(2,2),(3.14159265359,4.188790204786,6.28318530718,8.377580409573,
    9.424777960769),(0.508,3.048),.UNSPECIFIED.) 
GEOMETRIC_REPRESENTATION_ITEM() RATIONAL_B_SPLINE_SURFACE((
    (0.75,0.75)
    ,(0.75,0.75)
    ,(1.,1.)
    ,(0.5,0.5)
    ,(1.,1.)
    ,(0.5,0.5)
    ,(1.,1.)
    ,(0.75,0.75)
,(0.75,0.75))) REPRESENTATION_ITEM('') SURFACE() );
#146 = CARTESIAN_POINT('',(-1.068205932783E-15,3.207582124878,
    8.446632928845));
#147 = CARTESIAN_POINT('',(-1.068205932783E-15,0.152742005947,
    8.446632928845));
#148 = CARTESIAN_POINT('',(-4.876665795215,3.207582124878,8.446632928845
    ));
#149 = CARTESIAN_POINT('',(-4.876665795215,0.152742005947,8.446632928845
    ));
#150 = CARTESIAN_POINT('',(-7.314998692822,3.207582124878,4.223316464422
    ));
#151 = CARTESIAN_POINT('',(-7.314998692822,0.152742005947,4.223316464422
    ));
#152 = CARTESIAN_POINT('',(-14.62999738564,3.207582124878,
    -8.446632928845));
#153 = CARTESIAN_POINT('',(-14.62999738564,0.152742005947,
    -8.446632928845));
#154 = CARTESIAN_POINT('',(0.,3.207582124878,-8.446632928845));
#155 = CARTESIAN_POINT('',(0.,0.152742005947,-8.446632928845));
#156 = CARTESIAN_POINT('',(14.629997385644,3.207582124878,
    -8.446632928845));
#157 = CARTESIAN_POINT('',(14.629997385644,0.152742005947,
    -8.446632928845));
#158 = CARTESIAN_POINT('',(7.314998692822,3.207582124878,4.223316464422)
  );
#159 = CARTESIAN_POINT('',(7.314998692822,0.152742005947,4.223316464422)
  );
#160 = CARTESIAN_POINT('',(4.876665795215,3.207582124878,8.446632928845)
  );
#161 = CARTESIAN_POINT('',(4.876665795215,0.152742005947,8.446632928845)
  );
#162 = CARTESIAN_POINT('',(-1.068205932783E-15,3.207582124878,
    8.446632928845));
#163 = CARTESIAN_POINT('',(-1.068205932783E-15,0.152742005947,
    8.446632928845));
#164 = ADVANCED_FACE('',(#165),#179,.F.);
#165 = FACE_BOUND('',#166,.T.);
#166 = EDGE_LOOP('',(#167));
#167 = ORIENTED_EDGE('',*,*,#168,.T.);
#168 = EDGE_CURVE('',#169,#169,#171,.T.);
#169 = VERTEX_POINT('',#170);
#170 = CARTESIAN_POINT('',(0.,3.207582124878,7.224696881272));
#171 = ( BOUNDED_CURVE() B_SPLINE_CURVE(2,(#172,#173,#174,#175,#176,#177
,#178),.UNSPECIFIED.,.T.,.F.) B_SPLINE_CURVE_WITH_KNOTS((1,2,2,2,2,1),(
    -2.094395102393,0.,2.094395102393,4.188790204786,6.28318530718,
8.377580409573),.UNSPECIFIED.) CURVE() GEOMETRIC_REPRESENTATION_ITEM() 
RATIONAL_B_SPLINE_CURVE((1.,0.5,1.,0.5,1.,0.5,1.)) REPRESENTATION_ITEM(
  '') );
#172 = CARTESIAN_POINT('',(0.,3.207582124878,7.224696881272));
#173 = CARTESIAN_POINT('',(-12.51354206764,3.207582124878,7.224696881272
    ));
#174 = CARTESIAN_POINT('',(-6.256771033824,3.207582124878,
    -3.612348440636));
#175 = CARTESIAN_POINT('',(-1.769540382092E-15,3.207582124878,
    -14.44939376254));
#176 = CARTESIAN_POINT('',(6.256771033824,3.207582124878,-3.612348440636
    ));
#177 = CARTESIAN_POINT('',(12.513542067648,3.207582124878,7.224696881272
    ));
#178 = CARTESIAN_POINT('',(0.,3.207582124878,7.224696881272));
#179 = B_SPLINE_SURFACE_WITH_KNOTS('',1,1,(
    (#180,#181)
    ,(#182,#183
  )),.UNSPECIFIED.,.F.,.F.,.F.,(2,2),(2,2),(-6.0071,6.0071),(-6.0071,
    6.0071),.PIECEWISE_BEZIER_KNOTS.);
#180 = CARTESIAN_POINT('',(-7.224696881272,3.207582124878,
    -7.224696881272));
#181 = CARTESIAN_POINT('',(7.224696881272,3.207582124878,-7.224696881272
    ));
#182 = CARTESIAN_POINT('',(-7.224696881272,3.207582124878,7.224696881272
    ));
#183 = CARTESIAN_POINT('',(7.224696881272,3.207582124878,7.224696881272)
  );
#184 = ADVANCED_FACE('',(#185),#200,.T.);
#185 = FACE_BOUND('',#186,.T.);
#186 = EDGE_LOOP('',(#187,#188,#198,#199));
#187 = ORIENTED_EDGE('',*,*,#135,.F.);
#188 = ORIENTED_EDGE('',*,*,#189,.T.);
#189 = EDGE_CURVE('',#129,#74,#190,.T.);
#190 = ( BOUNDED_CURVE() B_SPLINE_CURVE(6,(#191,#192,#193,#194,#195,#196
,#197),.UNSPECIFIED.,.F.,.F.) B_SPLINE_CURVE_WITH_KNOTS((7,7),(0.,
1.570796326795),.PIECEWISE_BEZIER_KNOTS.) CURVE() 
GEOMETRIC_REPRESENTATION_ITEM() RATIONAL_B_SPLINE_CURVE((1.031393471788,
    1.010025407661,0.997924642725,0.993958444137,0.997924642725,
1.010025407661,1.031393471788)) REPRESENTATION_ITEM('') );
#191 = CARTESIAN_POINT('',(0.,3.207582124878,8.446632928845));
#192 = CARTESIAN_POINT('',(0.,3.370916350966,8.446632928845));
#193 = CARTESIAN_POINT('',(0.,3.529995188603,8.394697988725));
#194 = CARTESIAN_POINT('',(0.,3.666980903905,8.295063684086));
#195 = CARTESIAN_POINT('',(0.,3.766615208544,8.158077968784));
#196 = CARTESIAN_POINT('',(0.,3.818550148664,7.998999131147));
#197 = CARTESIAN_POINT('',(0.,3.818550148664,7.835664905059));
#198 = ORIENTED_EDGE('',*,*,#73,.F.);
#199 = ORIENTED_EDGE('',*,*,#189,.F.);
#200 = ( BOUNDED_SURFACE() B_SPLINE_SURFACE(2,2,(
    (#201,#202,#203)
    ,(#204,#205,#206)
    ,(#207,#208,#209)
    ,(#210,#211,#212)
    ,(#213,#214,#215)
    ,(#216,#217,#218)
    ,(#219,#220,#221
)),.UNSPECIFIED.,.T.,.F.,.F.) B_SPLINE_SURFACE_WITH_KNOTS((1,2,2,2,2,1),
  (3,3),(-2.094395102393,0.,2.094395102393,4.188790204786,6.28318530718,
    8.377580409573),(6.28318530718,7.853981633974),.UNSPECIFIED.) 
GEOMETRIC_REPRESENTATION_ITEM() RATIONAL_B_SPLINE_SURFACE((
    (1.,0.707106781187,1.)
    ,(0.5,0.353553390593,0.5)
    ,(1.,0.707106781187,1.)
    ,(0.5,0.353553390593,0.5)
    ,(1.,0.707106781187,1.)
    ,(0.5,0.353553390593,0.5)
,(1.,0.707106781187,1.))) REPRESENTATION_ITEM('') SURFACE() );
#201 = CARTESIAN_POINT('',(0.,3.207582124878,8.446632928845));
#202 = CARTESIAN_POINT('',(0.,3.818550148664,8.446632928845));
#203 = CARTESIAN_POINT('',(0.,3.818550148664,7.835664905059));
#204 = CARTESIAN_POINT('',(14.629997385644,3.207582124878,8.446632928845
    ));
#205 = CARTESIAN_POINT('',(14.629997385644,3.818550148664,8.446632928845
    ));
#206 = CARTESIAN_POINT('',(13.571769726646,3.818550148664,7.835664905059
    ));
#207 = CARTESIAN_POINT('',(7.314998692822,3.207582124878,-4.223316464422
    ));
#208 = CARTESIAN_POINT('',(7.314998692822,3.818550148664,-4.223316464422
    ));
#209 = CARTESIAN_POINT('',(6.785884863323,3.818550148664,-3.917832452529
    ));
#210 = CARTESIAN_POINT('',(2.068828395976E-15,3.207582124878,
    -16.89326585769));
#211 = CARTESIAN_POINT('',(2.068828395976E-15,3.818550148664,
    -16.89326585769));
#212 = CARTESIAN_POINT('',(1.919184389034E-15,3.818550148664,
    -15.67132981011));
#213 = CARTESIAN_POINT('',(-7.314998692822,3.207582124878,
    -4.223316464422));
#214 = CARTESIAN_POINT('',(-7.314998692822,3.818550148664,
    -4.223316464422));
#215 = CARTESIAN_POINT('',(-6.785884863323,3.818550148664,
    -3.917832452529));
#216 = CARTESIAN_POINT('',(-14.62999738564,3.207582124878,8.446632928845
    ));
#217 = CARTESIAN_POINT('',(-14.62999738564,3.818550148664,8.446632928845
    ));
#218 = CARTESIAN_POINT('',(-13.57176972664,3.818550148664,7.835664905059
    ));
#219 = CARTESIAN_POINT('',(0.,3.207582124878,8.446632928845));
#220 = CARTESIAN_POINT('',(0.,3.818550148664,8.446632928845));
#221 = CARTESIAN_POINT('',(0.,3.818550148664,7.835664905059));
#222 = ADVANCED_FACE('',(#223),#238,.F.);
#223 = FACE_BOUND('',#224,.F.);
#224 = EDGE_LOOP('',(#225,#226,#236,#237));
#225 = ORIENTED_EDGE('',*,*,#168,.T.);
#226 = ORIENTED_EDGE('',*,*,#227,.F.);
#227 = EDGE_CURVE('',#22,#169,#228,.T.);
#228 = ( BOUNDED_CURVE() B_SPLINE_CURVE(6,(#229,#230,#231,#232,#233,#234
,#235),.UNSPECIFIED.,.F.,.F.) B_SPLINE_CURVE_WITH_KNOTS((7,7),(0.,
1.570796326795),.PIECEWISE_BEZIER_KNOTS.) CURVE() 
GEOMETRIC_REPRESENTATION_ITEM() RATIONAL_B_SPLINE_CURVE((1.031393471788,
    1.010025407661,0.997924642725,0.993958444137,0.997924642725,
1.010025407661,1.031393471788)) REPRESENTATION_ITEM('') );
#229 = CARTESIAN_POINT('',(-1.919184389034E-15,2.596614101092,
    7.835664905059));
#230 = CARTESIAN_POINT('',(-1.919184389034E-15,2.75994832718,
    7.835664905059));
#231 = CARTESIAN_POINT('',(-1.906463997398E-15,2.919027164817,
    7.783729964939));
#232 = CARTESIAN_POINT('',(-1.882060630946E-15,3.056012880119,
    7.6840956603));
#233 = CARTESIAN_POINT('',(-1.848508807391E-15,3.155647184758,
    7.547109944998));
#234 = CARTESIAN_POINT('',(-1.809545729526E-15,3.207582124878,
    7.388031107361));
#235 = CARTESIAN_POINT('',(-1.769540382092E-15,3.207582124878,
    7.224696881272));
#236 = ORIENTED_EDGE('',*,*,#21,.T.);
#237 = ORIENTED_EDGE('',*,*,#227,.T.);
#238 = ( BOUNDED_SURFACE() B_SPLINE_SURFACE(2,2,(
    (#239,#240,#241)
    ,(#242,#243,#244)
    ,(#245,#246,#247)
    ,(#248,#249,#250)
    ,(#251,#252,#253)
    ,(#254,#255,#256)
    ,(#257,#258,#259
)),.UNSPECIFIED.,.T.,.F.,.F.) B_SPLINE_SURFACE_WITH_KNOTS((1,2,2,2,2,1),
  (3,3),(-2.094395102393,0.,2.094395102393,4.188790204786,6.28318530718,
    8.377580409573),(6.28318530718,7.853981633974),.UNSPECIFIED.) 
GEOMETRIC_REPRESENTATION_ITEM() RATIONAL_B_SPLINE_SURFACE((
    (1.,0.707106781187,1.)
    ,(0.5,0.353553390593,0.5)
    ,(1.,0.707106781187,1.)
    ,(0.5,0.353553390593,0.5)
    ,(1.,0.707106781187,1.)
    ,(0.5,0.353553390593,0.5)
,(1.,0.707106781187,1.))) REPRESENTATION_ITEM('') SURFACE() );
#239 = CARTESIAN_POINT('',(0.,2.596614101092,7.835664905059));
#240 = CARTESIAN_POINT('',(0.,3.207582124878,7.835664905059));
#241 = CARTESIAN_POINT('',(0.,3.207582124878,7.224696881272));
#242 = CARTESIAN_POINT('',(13.571769726646,2.596614101092,7.835664905059
    ));
#243 = CARTESIAN_POINT('',(13.571769726646,3.207582124878,7.835664905059
    ));
#244 = CARTESIAN_POINT('',(12.513542067648,3.207582124878,7.224696881272
    ));
#245 = CARTESIAN_POINT('',(6.785884863323,2.596614101092,-3.917832452529
    ));
#246 = CARTESIAN_POINT('',(6.785884863323,3.207582124878,-3.917832452529
    ));
#247 = CARTESIAN_POINT('',(6.256771033824,3.207582124878,-3.612348440636
    ));
#248 = CARTESIAN_POINT('',(1.919184389034E-15,2.596614101092,
    -15.67132981011));
#249 = CARTESIAN_POINT('',(1.919184389034E-15,3.207582124878,
    -15.67132981011));
#250 = CARTESIAN_POINT('',(1.769540382092E-15,3.207582124878,
    -14.44939376254));
#251 = CARTESIAN_POINT('',(-6.785884863323,2.596614101092,
    -3.917832452529));
#252 = CARTESIAN_POINT('',(-6.785884863323,3.207582124878,
    -3.917832452529));
#253 = CARTESIAN_POINT('',(-6.256771033824,3.207582124878,
    -3.612348440636));
#254 = CARTESIAN_POINT('',(-13.57176972664,2.596614101092,7.835664905059
    ));
#255 = CARTESIAN_POINT('',(-13.57176972664,3.207582124878,7.835664905059
    ));
#256 = CARTESIAN_POINT('',(-12.51354206764,3.207582124878,7.224696881272
    ));
#257 = CARTESIAN_POINT('',(0.,2.596614101092,7.835664905059));
#258 = CARTESIAN_POINT('',(0.,3.207582124878,7.835664905059));
#259 = CARTESIAN_POINT('',(0.,3.207582124878,7.224696881272));
#260 = ADVANCED_FACE('',(#261),#276,.T.);
#261 = FACE_BOUND('',#262,.T.);
#262 = EDGE_LOOP('',(#263,#264,#274,#275));
#263 = ORIENTED_EDGE('',*,*,#93,.F.);
#264 = ORIENTED_EDGE('',*,*,#265,.T.);
#265 = EDGE_CURVE('',#94,#117,#266,.T.);
#266 = ( BOUNDED_CURVE() B_SPLINE_CURVE(6,(#267,#268,#269,#270,#271,#272
,#273),.UNSPECIFIED.,.F.,.F.) B_SPLINE_CURVE_WITH_KNOTS((7,7),(
4.712388980385,6.28318530718),.PIECEWISE_BEZIER_KNOTS.) CURVE() 
GEOMETRIC_REPRESENTATION_ITEM() RATIONAL_B_SPLINE_CURVE((1.031393471788,
    1.010025407661,0.997924642725,0.993958444137,0.997924642725,
1.010025407661,1.031393471788)) REPRESENTATION_ITEM('') );
#267 = CARTESIAN_POINT('',(0.,-1.001443061984E-16,8.293890922898));
#268 = CARTESIAN_POINT('',(0.,1.001443061984E-16,8.33472447942));
#269 = CARTESIAN_POINT('',(0.,1.298373502997E-02,8.37449418883));
#270 = CARTESIAN_POINT('',(0.,3.789231118968E-02,8.408740617655));
#271 = CARTESIAN_POINT('',(0.,7.213874001516E-02,8.433649193815));
#272 = CARTESIAN_POINT('',(0.,0.111908449424,8.446632928845));
#273 = CARTESIAN_POINT('',(0.,0.152742005947,8.446632928845));
#274 = ORIENTED_EDGE('',*,*,#116,.F.);
#275 = ORIENTED_EDGE('',*,*,#265,.F.);
#276 = ( BOUNDED_SURFACE() B_SPLINE_SURFACE(2,2,(
    (#277,#278,#279)
    ,(#280,#281,#282)
    ,(#283,#284,#285)
    ,(#286,#287,#288)
    ,(#289,#290,#291)
    ,(#292,#293,#294)
    ,(#295,#296,#297
)),.UNSPECIFIED.,.T.,.F.,.F.) B_SPLINE_SURFACE_WITH_KNOTS((1,2,2,2,2,1),
  (3,3),(-2.094395102393,0.,2.094395102393,4.188790204786,6.28318530718,
    8.377580409573),(4.712388980385,6.28318530718),.UNSPECIFIED.) 
GEOMETRIC_REPRESENTATION_ITEM() RATIONAL_B_SPLINE_SURFACE((
    (1.,0.707106781187,1.)
    ,(0.5,0.353553390593,0.5)
    ,(1.,0.707106781187,1.)
    ,(0.5,0.353553390593,0.5)
    ,(1.,0.707106781187,1.)
    ,(0.5,0.353553390593,0.5)
,(1.,0.707106781187,1.))) REPRESENTATION_ITEM('') SURFACE() );
#277 = CARTESIAN_POINT('',(0.,-1.001443061984E-16,8.293890922898));
#278 = CARTESIAN_POINT('',(0.,-1.001443061984E-16,8.446632928845));
#279 = CARTESIAN_POINT('',(0.,0.152742005947,8.446632928845));
#280 = CARTESIAN_POINT('',(14.365440470894,-1.001443061984E-16,
    8.293890922898));
#281 = CARTESIAN_POINT('',(14.629997385644,-1.001443061984E-16,
    8.446632928845));
#282 = CARTESIAN_POINT('',(14.629997385644,0.152742005947,8.446632928845
    ));
#283 = CARTESIAN_POINT('',(7.182720235447,-1.001443061984E-16,
    -4.146945461449));
#284 = CARTESIAN_POINT('',(7.314998692822,-1.001443061984E-16,
    -4.223316464422));
#285 = CARTESIAN_POINT('',(7.314998692822,0.152742005947,-4.223316464422
    ));
#286 = CARTESIAN_POINT('',(2.031417394241E-15,-1.001443061984E-16,
    -16.58778184579));
#287 = CARTESIAN_POINT('',(2.068828395976E-15,-1.001443061984E-16,
    -16.89326585769));
#288 = CARTESIAN_POINT('',(2.068828395976E-15,0.152742005947,
    -16.89326585769));
#289 = CARTESIAN_POINT('',(-7.182720235447,-1.001443061984E-16,
    -4.146945461449));
#290 = CARTESIAN_POINT('',(-7.314998692822,-1.001443061984E-16,
    -4.223316464422));
#291 = CARTESIAN_POINT('',(-7.314998692822,0.152742005947,
    -4.223316464422));
#292 = CARTESIAN_POINT('',(-14.36544047089,-1.001443061984E-16,
    8.293890922898));
#293 = CARTESIAN_POINT('',(-14.62999738564,-1.001443061984E-16,
    8.446632928845));
#294 = CARTESIAN_POINT('',(-14.62999738564,0.152742005947,8.446632928845
    ));
#295 = CARTESIAN_POINT('',(0.,-1.001443061984E-16,8.293890922898));
#296 = CARTESIAN_POINT('',(0.,-1.001443061984E-16,8.446632928845));
#297 = CARTESIAN_POINT('',(0.,0.152742005947,8.446632928845));
#298 = ( GEOMETRIC_REPRESENTATION_CONTEXT(3) 
GLOBAL_UNCERTAINTY_ASSIGNED_CONTEXT((#302)) GLOBAL_UNIT_ASSIGNED_CONTEXT
((#299,#300,#301)) REPRESENTATION_CONTEXT('Context #1',
  '3D Context with UNIT and UNCERTAINTY') );
#299 = ( LENGTH_UNIT() NAMED_UNIT(*) SI_UNIT(.MILLI.,.METRE.) );
#300 = ( NAMED_UNIT(*) PLANE_ANGLE_UNIT() SI_UNIT($,.RADIAN.) );
#301 = ( NAMED_UNIT(*) SI_UNIT($,.STERADIAN.) SOLID_ANGLE_UNIT() );
#302 = UNCERTAINTY_MEASURE_WITH_UNIT(LENGTH_MEASURE(1.E-05),#299,
  'distance_accuracy_value','confusion accuracy');
#303 = PRODUCT_RELATED_PRODUCT_CATEGORY('part',$,(#7));
ENDSEC;
END-ISO-10303-21;
