ISO-10303-21;
HEADER;
FILE_DESCRIPTION(('FreeCAD Model'),'2;1');
FILE_NAME('Open CASCADE Shape Model','2025-04-29T19:13:38',('FreeCAD'),(
    'FreeCAD'),'Open CASCADE STEP processor 7.6','FreeCAD','Unknown');
FILE_SCHEMA(('AUTOMOTIVE_DESIGN { 1 0 10303 214 1 1 1 1 }'));
ENDSEC;
DATA;
#1 = APPLICATION_PROTOCOL_DEFINITION('international standard',
  'automotive_design',2000,#2);
#2 = APPLICATION_CONTEXT(
  'core data for automotive mechanical design processes');
#3 = SHAPE_DEFINITION_REPRESENTATION(#4,#10);
#4 = PRODUCT_DEFINITION_SHAPE('','',#5);
#5 = PRODUCT_DEFINITION('design','',#6,#9);
#6 = PRODUCT_DEFINITION_FORMATION('','',#7);
#7 = PRODUCT('Open CASCADE STEP translator 7.6 1',
  'Open CASCADE STEP translator 7.6 1','',(#8));
#8 = PRODUCT_CONTEXT('',#2,'mechanical');
#9 = PRODUCT_DEFINITION_CONTEXT('part definition',#2,'design');
#10 = ADVANCED_BREP_SHAPE_REPRESENTATION('',(#11,#15),#413);
#11 = AXIS2_PLACEMENT_3D('',#12,#13,#14);
#12 = CARTESIAN_POINT('',(0.,0.,0.));
#13 = DIRECTION('',(0.,0.,1.));
#14 = DIRECTION('',(1.,0.,-0.));
#15 = MANIFOLD_SOLID_BREP('',#16);
#16 = CLOSED_SHELL('',(#17,#113,#141,#163,#185,#201,#213,#241,#263,#285,
    #301,#313,#341,#363,#385,#401));
#17 = ADVANCED_FACE('',(#18,#48,#78),#108,.T.);
#18 = FACE_BOUND('',#19,.T.);
#19 = EDGE_LOOP('',(#20,#29,#36,#43));
#20 = ORIENTED_EDGE('',*,*,#21,.T.);
#21 = EDGE_CURVE('',#22,#24,#26,.T.);
#22 = VERTEX_POINT('',#23);
#23 = CARTESIAN_POINT('',(16.574589368413,31.874210323872,
    131.32174653435));
#24 = VERTEX_POINT('',#25);
#25 = CARTESIAN_POINT('',(16.574589368413,31.874210323872,
    -131.3217465343));
#26 = B_SPLINE_CURVE_WITH_KNOTS('',1,(#27,#28),.UNSPECIFIED.,.F.,.F.,(2,
    2),(-206.,0.),.PIECEWISE_BEZIER_KNOTS.);
#27 = CARTESIAN_POINT('',(16.574589368413,31.874210323872,
    131.32174653435));
#28 = CARTESIAN_POINT('',(16.574589368413,31.874210323872,
    -131.3217465343));
#29 = ORIENTED_EDGE('',*,*,#30,.T.);
#30 = EDGE_CURVE('',#24,#31,#33,.T.);
#31 = VERTEX_POINT('',#32);
#32 = CARTESIAN_POINT('',(207.81985131164,31.874210323872,
    -131.3217465343));
#33 = B_SPLINE_CURVE_WITH_KNOTS('',1,(#34,#35),.UNSPECIFIED.,.F.,.F.,(2,
    2),(-150.,0.),.PIECEWISE_BEZIER_KNOTS.);
#34 = CARTESIAN_POINT('',(16.574589368413,31.874210323872,
    -131.3217465343));
#35 = CARTESIAN_POINT('',(207.81985131164,31.874210323872,
    -131.3217465343));
#36 = ORIENTED_EDGE('',*,*,#37,.T.);
#37 = EDGE_CURVE('',#31,#38,#40,.T.);
#38 = VERTEX_POINT('',#39);
#39 = CARTESIAN_POINT('',(207.81985131164,31.874210323872,
    131.32174653435));
#40 = B_SPLINE_CURVE_WITH_KNOTS('',1,(#41,#42),.UNSPECIFIED.,.F.,.F.,(2,
    2),(0.,206.),.PIECEWISE_BEZIER_KNOTS.);
#41 = CARTESIAN_POINT('',(207.81985131164,31.874210323872,
    -131.3217465343));
#42 = CARTESIAN_POINT('',(207.81985131164,31.874210323872,
    131.32174653435));
#43 = ORIENTED_EDGE('',*,*,#44,.T.);
#44 = EDGE_CURVE('',#38,#22,#45,.T.);
#45 = B_SPLINE_CURVE_WITH_KNOTS('',1,(#46,#47),.UNSPECIFIED.,.F.,.F.,(2,
    2),(0.,150.),.PIECEWISE_BEZIER_KNOTS.);
#46 = CARTESIAN_POINT('',(207.81985131164,31.874210323872,
    131.32174653435));
#47 = CARTESIAN_POINT('',(16.574589368413,31.874210323872,
    131.32174653435));
#48 = FACE_BOUND('',#49,.T.);
#49 = EDGE_LOOP('',(#50,#59,#66,#73));
#50 = ORIENTED_EDGE('',*,*,#51,.T.);
#51 = EDGE_CURVE('',#52,#54,#56,.T.);
#52 = VERTEX_POINT('',#53);
#53 = CARTESIAN_POINT('',(-229.4943143318,31.874210323872,
    -152.9962095545));
#54 = VERTEX_POINT('',#55);
#55 = CARTESIAN_POINT('',(-229.4943143318,31.874210323872,
    152.99620955458));
#56 = B_SPLINE_CURVE_WITH_KNOTS('',1,(#57,#58),.UNSPECIFIED.,.F.,.F.,(2,
    2),(-240.,0.),.PIECEWISE_BEZIER_KNOTS.);
#57 = CARTESIAN_POINT('',(-229.4943143318,31.874210323872,
    -152.9962095545));
#58 = CARTESIAN_POINT('',(-229.4943143318,31.874210323872,
    152.99620955458));
#59 = ORIENTED_EDGE('',*,*,#60,.T.);
#60 = EDGE_CURVE('',#54,#61,#63,.T.);
#61 = VERTEX_POINT('',#62);
#62 = CARTESIAN_POINT('',(229.49431433187,31.874210323872,
    152.99620955458));
#63 = B_SPLINE_CURVE_WITH_KNOTS('',1,(#64,#65),.UNSPECIFIED.,.F.,.F.,(2,
    2),(-360.,0.),.PIECEWISE_BEZIER_KNOTS.);
#64 = CARTESIAN_POINT('',(-229.4943143318,31.874210323872,
    152.99620955458));
#65 = CARTESIAN_POINT('',(229.49431433187,31.874210323872,
    152.99620955458));
#66 = ORIENTED_EDGE('',*,*,#67,.T.);
#67 = EDGE_CURVE('',#61,#68,#70,.T.);
#68 = VERTEX_POINT('',#69);
#69 = CARTESIAN_POINT('',(229.49431433187,31.874210323872,
    -152.9962095545));
#70 = B_SPLINE_CURVE_WITH_KNOTS('',1,(#71,#72),.UNSPECIFIED.,.F.,.F.,(2,
    2),(0.,240.),.PIECEWISE_BEZIER_KNOTS.);
#71 = CARTESIAN_POINT('',(229.49431433187,31.874210323872,
    152.99620955458));
#72 = CARTESIAN_POINT('',(229.49431433187,31.874210323872,
    -152.9962095545));
#73 = ORIENTED_EDGE('',*,*,#74,.T.);
#74 = EDGE_CURVE('',#68,#52,#75,.T.);
#75 = B_SPLINE_CURVE_WITH_KNOTS('',1,(#76,#77),.UNSPECIFIED.,.F.,.F.,(2,
    2),(0.,360.),.PIECEWISE_BEZIER_KNOTS.);
#76 = CARTESIAN_POINT('',(229.49431433187,31.874210323872,
    -152.9962095545));
#77 = CARTESIAN_POINT('',(-229.4943143318,31.874210323872,
    -152.9962095545));
#78 = FACE_BOUND('',#79,.T.);
#79 = EDGE_LOOP('',(#80,#89,#96,#103));
#80 = ORIENTED_EDGE('',*,*,#81,.F.);
#81 = EDGE_CURVE('',#82,#84,#86,.T.);
#82 = VERTEX_POINT('',#83);
#83 = CARTESIAN_POINT('',(-16.57458936841,31.874210323872,
    -131.3217465343));
#84 = VERTEX_POINT('',#85);
#85 = CARTESIAN_POINT('',(-207.8198513116,31.874210323872,
    -131.3217465343));
#86 = B_SPLINE_CURVE_WITH_KNOTS('',1,(#87,#88),.UNSPECIFIED.,.F.,.F.,(2,
    2),(-150.,0.),.PIECEWISE_BEZIER_KNOTS.);
#87 = CARTESIAN_POINT('',(-16.57458936841,31.874210323872,
    -131.3217465343));
#88 = CARTESIAN_POINT('',(-207.8198513116,31.874210323872,
    -131.3217465343));
#89 = ORIENTED_EDGE('',*,*,#90,.F.);
#90 = EDGE_CURVE('',#91,#82,#93,.T.);
#91 = VERTEX_POINT('',#92);
#92 = CARTESIAN_POINT('',(-16.57458936841,31.874210323872,
    131.32174653435));
#93 = B_SPLINE_CURVE_WITH_KNOTS('',1,(#94,#95),.UNSPECIFIED.,.F.,.F.,(2,
    2),(-206.,-0.),.PIECEWISE_BEZIER_KNOTS.);
#94 = CARTESIAN_POINT('',(-16.57458936841,31.874210323872,
    131.32174653435));
#95 = CARTESIAN_POINT('',(-16.57458936841,31.874210323872,
    -131.3217465343));
#96 = ORIENTED_EDGE('',*,*,#97,.F.);
#97 = EDGE_CURVE('',#98,#91,#100,.T.);
#98 = VERTEX_POINT('',#99);
#99 = CARTESIAN_POINT('',(-207.8198513116,31.874210323872,
    131.32174653435));
#100 = B_SPLINE_CURVE_WITH_KNOTS('',1,(#101,#102),.UNSPECIFIED.,.F.,.F.,
  (2,2),(0.,150.),.PIECEWISE_BEZIER_KNOTS.);
#101 = CARTESIAN_POINT('',(-207.8198513116,31.874210323872,
    131.32174653435));
#102 = CARTESIAN_POINT('',(-16.57458936841,31.874210323872,
    131.32174653435));
#103 = ORIENTED_EDGE('',*,*,#104,.F.);
#104 = EDGE_CURVE('',#84,#98,#105,.T.);
#105 = B_SPLINE_CURVE_WITH_KNOTS('',1,(#106,#107),.UNSPECIFIED.,.F.,.F.,
  (2,2),(0.,206.),.PIECEWISE_BEZIER_KNOTS.);
#106 = CARTESIAN_POINT('',(-207.8198513116,31.874210323872,
    -131.3217465343));
#107 = CARTESIAN_POINT('',(-207.8198513116,31.874210323872,
    131.32174653435));
#108 = B_SPLINE_SURFACE_WITH_KNOTS('',1,1,(
    (#109,#110)
    ,(#111,#112
    )),.UNSPECIFIED.,.F.,.F.,.F.,(2,2),(2,2),(-120.,120.),(-180.,180.),
  .PIECEWISE_BEZIER_KNOTS.);
#109 = CARTESIAN_POINT('',(-229.4943143318,31.874210323872,
    -152.9962095545));
#110 = CARTESIAN_POINT('',(229.49431433187,31.874210323872,
    -152.9962095545));
#111 = CARTESIAN_POINT('',(-229.4943143318,31.874210323872,
    152.99620955458));
#112 = CARTESIAN_POINT('',(229.49431433187,31.874210323872,
    152.99620955458));
#113 = ADVANCED_FACE('',(#114),#136,.F.);
#114 = FACE_BOUND('',#115,.T.);
#115 = EDGE_LOOP('',(#116,#125,#130,#131));
#116 = ORIENTED_EDGE('',*,*,#117,.T.);
#117 = EDGE_CURVE('',#118,#120,#122,.T.);
#118 = VERTEX_POINT('',#119);
#119 = CARTESIAN_POINT('',(-229.4943143318,0.,-152.9962095545));
#120 = VERTEX_POINT('',#121);
#121 = CARTESIAN_POINT('',(-229.4943143318,0.,152.99620955458));
#122 = B_SPLINE_CURVE_WITH_KNOTS('',1,(#123,#124),.UNSPECIFIED.,.F.,.F.,
  (2,2),(-240.,0.),.PIECEWISE_BEZIER_KNOTS.);
#123 = CARTESIAN_POINT('',(-229.4943143318,0.,-152.9962095545));
#124 = CARTESIAN_POINT('',(-229.4943143318,0.,152.99620955458));
#125 = ORIENTED_EDGE('',*,*,#126,.F.);
#126 = EDGE_CURVE('',#54,#120,#127,.T.);
#127 = B_SPLINE_CURVE_WITH_KNOTS('',1,(#128,#129),.UNSPECIFIED.,.F.,.F.,
  (2,2),(-0.,25.),.PIECEWISE_BEZIER_KNOTS.);
#128 = CARTESIAN_POINT('',(-229.4943143318,31.874210323872,
    152.99620955458));
#129 = CARTESIAN_POINT('',(-229.4943143318,0.,152.99620955458));
#130 = ORIENTED_EDGE('',*,*,#51,.F.);
#131 = ORIENTED_EDGE('',*,*,#132,.T.);
#132 = EDGE_CURVE('',#52,#118,#133,.T.);
#133 = B_SPLINE_CURVE_WITH_KNOTS('',1,(#134,#135),.UNSPECIFIED.,.F.,.F.,
  (2,2),(-0.,25.),.PIECEWISE_BEZIER_KNOTS.);
#134 = CARTESIAN_POINT('',(-229.4943143318,31.874210323872,
    -152.9962095545));
#135 = CARTESIAN_POINT('',(-229.4943143318,0.,-152.9962095545));
#136 = B_SPLINE_SURFACE_WITH_KNOTS('',1,1,(
    (#137,#138)
    ,(#139,#140
    )),.UNSPECIFIED.,.F.,.F.,.F.,(2,2),(2,2),(0.,240.),(-25.,0.),
  .PIECEWISE_BEZIER_KNOTS.);
#137 = CARTESIAN_POINT('',(-229.4943143318,0.,152.99620955458));
#138 = CARTESIAN_POINT('',(-229.4943143318,31.874210323872,
    152.99620955458));
#139 = CARTESIAN_POINT('',(-229.4943143318,0.,-152.9962095545));
#140 = CARTESIAN_POINT('',(-229.4943143318,31.874210323872,
    -152.9962095545));
#141 = ADVANCED_FACE('',(#142),#158,.F.);
#142 = FACE_BOUND('',#143,.T.);
#143 = EDGE_LOOP('',(#144,#151,#156,#157));
#144 = ORIENTED_EDGE('',*,*,#145,.T.);
#145 = EDGE_CURVE('',#120,#146,#148,.T.);
#146 = VERTEX_POINT('',#147);
#147 = CARTESIAN_POINT('',(229.49431433187,0.,152.99620955458));
#148 = B_SPLINE_CURVE_WITH_KNOTS('',1,(#149,#150),.UNSPECIFIED.,.F.,.F.,
  (2,2),(-360.,0.),.PIECEWISE_BEZIER_KNOTS.);
#149 = CARTESIAN_POINT('',(-229.4943143318,0.,152.99620955458));
#150 = CARTESIAN_POINT('',(229.49431433187,0.,152.99620955458));
#151 = ORIENTED_EDGE('',*,*,#152,.F.);
#152 = EDGE_CURVE('',#61,#146,#153,.T.);
#153 = B_SPLINE_CURVE_WITH_KNOTS('',1,(#154,#155),.UNSPECIFIED.,.F.,.F.,
  (2,2),(-0.,25.),.PIECEWISE_BEZIER_KNOTS.);
#154 = CARTESIAN_POINT('',(229.49431433187,31.874210323872,
    152.99620955458));
#155 = CARTESIAN_POINT('',(229.49431433187,0.,152.99620955458));
#156 = ORIENTED_EDGE('',*,*,#60,.F.);
#157 = ORIENTED_EDGE('',*,*,#126,.T.);
#158 = B_SPLINE_SURFACE_WITH_KNOTS('',1,1,(
    (#159,#160)
    ,(#161,#162
    )),.UNSPECIFIED.,.F.,.F.,.F.,(2,2),(2,2),(0.,360.),(-25.,0.),
  .PIECEWISE_BEZIER_KNOTS.);
#159 = CARTESIAN_POINT('',(229.49431433187,0.,152.99620955458));
#160 = CARTESIAN_POINT('',(229.49431433187,31.874210323872,
    152.99620955458));
#161 = CARTESIAN_POINT('',(-229.4943143318,0.,152.99620955458));
#162 = CARTESIAN_POINT('',(-229.4943143318,31.874210323872,
    152.99620955458));
#163 = ADVANCED_FACE('',(#164),#180,.F.);
#164 = FACE_BOUND('',#165,.T.);
#165 = EDGE_LOOP('',(#166,#173,#178,#179));
#166 = ORIENTED_EDGE('',*,*,#167,.T.);
#167 = EDGE_CURVE('',#146,#168,#170,.T.);
#168 = VERTEX_POINT('',#169);
#169 = CARTESIAN_POINT('',(229.49431433187,0.,-152.9962095545));
#170 = B_SPLINE_CURVE_WITH_KNOTS('',1,(#171,#172),.UNSPECIFIED.,.F.,.F.,
  (2,2),(0.,240.),.PIECEWISE_BEZIER_KNOTS.);
#171 = CARTESIAN_POINT('',(229.49431433187,0.,152.99620955458));
#172 = CARTESIAN_POINT('',(229.49431433187,0.,-152.9962095545));
#173 = ORIENTED_EDGE('',*,*,#174,.F.);
#174 = EDGE_CURVE('',#68,#168,#175,.T.);
#175 = B_SPLINE_CURVE_WITH_KNOTS('',1,(#176,#177),.UNSPECIFIED.,.F.,.F.,
  (2,2),(-0.,25.),.PIECEWISE_BEZIER_KNOTS.);
#176 = CARTESIAN_POINT('',(229.49431433187,31.874210323872,
    -152.9962095545));
#177 = CARTESIAN_POINT('',(229.49431433187,0.,-152.9962095545));
#178 = ORIENTED_EDGE('',*,*,#67,.F.);
#179 = ORIENTED_EDGE('',*,*,#152,.T.);
#180 = B_SPLINE_SURFACE_WITH_KNOTS('',1,1,(
    (#181,#182)
    ,(#183,#184
    )),.UNSPECIFIED.,.F.,.F.,.F.,(2,2),(2,2),(-240.,0.),(-25.,0.),
  .PIECEWISE_BEZIER_KNOTS.);
#181 = CARTESIAN_POINT('',(229.49431433187,0.,-152.9962095545));
#182 = CARTESIAN_POINT('',(229.49431433187,31.874210323872,
    -152.9962095545));
#183 = CARTESIAN_POINT('',(229.49431433187,0.,152.99620955458));
#184 = CARTESIAN_POINT('',(229.49431433187,31.874210323872,
    152.99620955458));
#185 = ADVANCED_FACE('',(#186),#196,.F.);
#186 = FACE_BOUND('',#187,.T.);
#187 = EDGE_LOOP('',(#188,#193,#194,#195));
#188 = ORIENTED_EDGE('',*,*,#189,.T.);
#189 = EDGE_CURVE('',#168,#118,#190,.T.);
#190 = B_SPLINE_CURVE_WITH_KNOTS('',1,(#191,#192),.UNSPECIFIED.,.F.,.F.,
  (2,2),(0.,360.),.PIECEWISE_BEZIER_KNOTS.);
#191 = CARTESIAN_POINT('',(229.49431433187,0.,-152.9962095545));
#192 = CARTESIAN_POINT('',(-229.4943143318,0.,-152.9962095545));
#193 = ORIENTED_EDGE('',*,*,#132,.F.);
#194 = ORIENTED_EDGE('',*,*,#74,.F.);
#195 = ORIENTED_EDGE('',*,*,#174,.T.);
#196 = B_SPLINE_SURFACE_WITH_KNOTS('',1,1,(
    (#197,#198)
    ,(#199,#200
    )),.UNSPECIFIED.,.F.,.F.,.F.,(2,2),(2,2),(-360.,0.),(-25.,0.),
  .PIECEWISE_BEZIER_KNOTS.);
#197 = CARTESIAN_POINT('',(-229.4943143318,0.,-152.9962095545));
#198 = CARTESIAN_POINT('',(-229.4943143318,31.874210323872,
    -152.9962095545));
#199 = CARTESIAN_POINT('',(229.49431433187,0.,-152.9962095545));
#200 = CARTESIAN_POINT('',(229.49431433187,31.874210323872,
    -152.9962095545));
#201 = ADVANCED_FACE('',(#202),#208,.F.);
#202 = FACE_BOUND('',#203,.T.);
#203 = EDGE_LOOP('',(#204,#205,#206,#207));
#204 = ORIENTED_EDGE('',*,*,#117,.F.);
#205 = ORIENTED_EDGE('',*,*,#189,.F.);
#206 = ORIENTED_EDGE('',*,*,#167,.F.);
#207 = ORIENTED_EDGE('',*,*,#145,.F.);
#208 = B_SPLINE_SURFACE_WITH_KNOTS('',1,1,(
    (#209,#210)
    ,(#211,#212
    )),.UNSPECIFIED.,.F.,.F.,.F.,(2,2),(2,2),(-120.,120.),(-180.,180.),
  .PIECEWISE_BEZIER_KNOTS.);
#209 = CARTESIAN_POINT('',(-229.4943143318,0.,-152.9962095545));
#210 = CARTESIAN_POINT('',(229.49431433187,0.,-152.9962095545));
#211 = CARTESIAN_POINT('',(-229.4943143318,0.,152.99620955458));
#212 = CARTESIAN_POINT('',(229.49431433187,0.,152.99620955458));
#213 = ADVANCED_FACE('',(#214),#236,.T.);
#214 = FACE_BOUND('',#215,.T.);
#215 = EDGE_LOOP('',(#216,#217,#224,#231));
#216 = ORIENTED_EDGE('',*,*,#90,.T.);
#217 = ORIENTED_EDGE('',*,*,#218,.F.);
#218 = EDGE_CURVE('',#219,#82,#221,.T.);
#219 = VERTEX_POINT('',#220);
#220 = CARTESIAN_POINT('',(-17.20901524321,50.998736518195,
    -130.6873206595));
#221 = B_SPLINE_CURVE_WITH_KNOTS('',1,(#222,#223),.UNSPECIFIED.,.F.,.F.,
  (2,2),(-10.0459525275,4.970545533168),.PIECEWISE_BEZIER_KNOTS.);
#222 = CARTESIAN_POINT('',(-17.20901524321,50.998736518195,
    -130.6873206595));
#223 = CARTESIAN_POINT('',(-16.57458936841,31.874210323872,
    -131.3217465343));
#224 = ORIENTED_EDGE('',*,*,#225,.F.);
#225 = EDGE_CURVE('',#226,#219,#228,.T.);
#226 = VERTEX_POINT('',#227);
#227 = CARTESIAN_POINT('',(-17.20901524321,50.998736518195,
    130.68732065955));
#228 = B_SPLINE_CURVE_WITH_KNOTS('',1,(#229,#230),.UNSPECIFIED.,.F.,.F.,
  (2,2),(-205.5023987509,-0.497601249062),.PIECEWISE_BEZIER_KNOTS.);
#229 = CARTESIAN_POINT('',(-17.20901524321,50.998736518195,
    130.68732065955));
#230 = CARTESIAN_POINT('',(-17.20901524321,50.998736518195,
    -130.6873206595));
#231 = ORIENTED_EDGE('',*,*,#232,.T.);
#232 = EDGE_CURVE('',#226,#91,#233,.T.);
#233 = B_SPLINE_CURVE_WITH_KNOTS('',1,(#234,#235),.UNSPECIFIED.,.F.,.F.,
  (2,2),(-8.19028219512,6.826215865551),.PIECEWISE_BEZIER_KNOTS.);
#234 = CARTESIAN_POINT('',(-17.20901524321,50.998736518195,
    130.68732065955));
#235 = CARTESIAN_POINT('',(-16.57458936841,31.874210323872,
    131.32174653435));
#236 = B_SPLINE_SURFACE_WITH_KNOTS('',1,1,(
    (#237,#238)
    ,(#239,#240
    )),.UNSPECIFIED.,.F.,.F.,.F.,(2,2),(2,2),(-1.840482121625E-15,
    15.008251297305),(-6.494804694057E-15,206.),
  .PIECEWISE_BEZIER_KNOTS.);
#237 = CARTESIAN_POINT('',(-16.57458936841,31.874210323872,
    -131.3217465343));
#238 = CARTESIAN_POINT('',(-16.57458936841,31.874210323872,
    131.32174653435));
#239 = CARTESIAN_POINT('',(-17.20901524321,50.998736518195,
    -131.3217465343));
#240 = CARTESIAN_POINT('',(-17.20901524321,50.998736518195,
    131.32174653435));
#241 = ADVANCED_FACE('',(#242),#258,.T.);
#242 = FACE_BOUND('',#243,.T.);
#243 = EDGE_LOOP('',(#244,#245,#252,#257));
#244 = ORIENTED_EDGE('',*,*,#81,.T.);
#245 = ORIENTED_EDGE('',*,*,#246,.F.);
#246 = EDGE_CURVE('',#247,#84,#249,.T.);
#247 = VERTEX_POINT('',#248);
#248 = CARTESIAN_POINT('',(-207.1854254368,50.998736518195,
    -130.6873206595));
#249 = B_SPLINE_CURVE_WITH_KNOTS('',1,(#250,#251),.UNSPECIFIED.,.F.,.F.,
  (2,2),(-15.01649806067,-0.),.PIECEWISE_BEZIER_KNOTS.);
#250 = CARTESIAN_POINT('',(-207.1854254368,50.998736518195,
    -130.6873206595));
#251 = CARTESIAN_POINT('',(-207.8198513116,31.874210323872,
    -131.3217465343));
#252 = ORIENTED_EDGE('',*,*,#253,.F.);
#253 = EDGE_CURVE('',#219,#247,#254,.T.);
#254 = B_SPLINE_CURVE_WITH_KNOTS('',1,(#255,#256),.UNSPECIFIED.,.F.,.F.,
  (2,2),(-149.5023987509,-0.497601249062),.PIECEWISE_BEZIER_KNOTS.);
#255 = CARTESIAN_POINT('',(-17.20901524321,50.998736518195,
    -130.6873206595));
#256 = CARTESIAN_POINT('',(-207.1854254368,50.998736518195,
    -130.6873206595));
#257 = ORIENTED_EDGE('',*,*,#218,.T.);
#258 = B_SPLINE_SURFACE_WITH_KNOTS('',1,1,(
    (#259,#260)
    ,(#261,#262
    )),.UNSPECIFIED.,.F.,.F.,.F.,(2,2),(2,2),(-1.7763568394E-15,
    15.008251297305),(0.,150.),.PIECEWISE_BEZIER_KNOTS.);
#259 = CARTESIAN_POINT('',(-207.8198513116,31.874210323872,
    -131.3217465343));
#260 = CARTESIAN_POINT('',(-16.57458936841,31.874210323872,
    -131.3217465343));
#261 = CARTESIAN_POINT('',(-207.8198513116,50.998736518195,
    -130.6873206595));
#262 = CARTESIAN_POINT('',(-16.57458936841,50.998736518195,
    -130.6873206595));
#263 = ADVANCED_FACE('',(#264),#280,.T.);
#264 = FACE_BOUND('',#265,.T.);
#265 = EDGE_LOOP('',(#266,#267,#274,#279));
#266 = ORIENTED_EDGE('',*,*,#104,.T.);
#267 = ORIENTED_EDGE('',*,*,#268,.F.);
#268 = EDGE_CURVE('',#269,#98,#271,.T.);
#269 = VERTEX_POINT('',#270);
#270 = CARTESIAN_POINT('',(-207.1854254368,50.998736518195,
    130.68732065955));
#271 = B_SPLINE_CURVE_WITH_KNOTS('',1,(#272,#273),.UNSPECIFIED.,.F.,.F.,
  (2,2),(-15.01649806067,0.),.PIECEWISE_BEZIER_KNOTS.);
#272 = CARTESIAN_POINT('',(-207.1854254368,50.998736518195,
    130.68732065955));
#273 = CARTESIAN_POINT('',(-207.8198513116,31.874210323872,
    131.32174653435));
#274 = ORIENTED_EDGE('',*,*,#275,.F.);
#275 = EDGE_CURVE('',#247,#269,#276,.T.);
#276 = B_SPLINE_CURVE_WITH_KNOTS('',1,(#277,#278),.UNSPECIFIED.,.F.,.F.,
  (2,2),(0.497601249062,205.50239875093),.PIECEWISE_BEZIER_KNOTS.);
#277 = CARTESIAN_POINT('',(-207.1854254368,50.998736518195,
    -130.6873206595));
#278 = CARTESIAN_POINT('',(-207.1854254368,50.998736518195,
    130.68732065955));
#279 = ORIENTED_EDGE('',*,*,#246,.T.);
#280 = B_SPLINE_SURFACE_WITH_KNOTS('',1,1,(
    (#281,#282)
    ,(#283,#284
    )),.UNSPECIFIED.,.F.,.F.,.F.,(2,2),(2,2),(-15.0082512973,0.),(0.,
    206.),.PIECEWISE_BEZIER_KNOTS.);
#281 = CARTESIAN_POINT('',(-207.1854254368,50.998736518195,
    -131.3217465343));
#282 = CARTESIAN_POINT('',(-207.1854254368,50.998736518195,
    131.32174653435));
#283 = CARTESIAN_POINT('',(-207.8198513116,31.874210323872,
    -131.3217465343));
#284 = CARTESIAN_POINT('',(-207.8198513116,31.874210323872,
    131.32174653435));
#285 = ADVANCED_FACE('',(#286),#296,.T.);
#286 = FACE_BOUND('',#287,.T.);
#287 = EDGE_LOOP('',(#288,#289,#290,#295));
#288 = ORIENTED_EDGE('',*,*,#97,.T.);
#289 = ORIENTED_EDGE('',*,*,#232,.F.);
#290 = ORIENTED_EDGE('',*,*,#291,.F.);
#291 = EDGE_CURVE('',#269,#226,#292,.T.);
#292 = B_SPLINE_CURVE_WITH_KNOTS('',1,(#293,#294),.UNSPECIFIED.,.F.,.F.,
  (2,2),(0.497601249062,149.50239875093),.PIECEWISE_BEZIER_KNOTS.);
#293 = CARTESIAN_POINT('',(-207.1854254368,50.998736518195,
    130.68732065955));
#294 = CARTESIAN_POINT('',(-17.20901524321,50.998736518195,
    130.68732065955));
#295 = ORIENTED_EDGE('',*,*,#268,.T.);
#296 = B_SPLINE_SURFACE_WITH_KNOTS('',1,1,(
    (#297,#298)
    ,(#299,#300
    )),.UNSPECIFIED.,.F.,.F.,.F.,(2,2),(2,2),(-15.0082512973,0.),(0.,
    150.),.PIECEWISE_BEZIER_KNOTS.);
#297 = CARTESIAN_POINT('',(-207.8198513116,50.998736518195,
    130.68732065955));
#298 = CARTESIAN_POINT('',(-16.57458936841,50.998736518195,
    130.68732065955));
#299 = CARTESIAN_POINT('',(-207.8198513116,31.874210323872,
    131.32174653435));
#300 = CARTESIAN_POINT('',(-16.57458936841,31.874210323872,
    131.32174653435));
#301 = ADVANCED_FACE('',(#302),#308,.T.);
#302 = FACE_BOUND('',#303,.T.);
#303 = EDGE_LOOP('',(#304,#305,#306,#307));
#304 = ORIENTED_EDGE('',*,*,#225,.T.);
#305 = ORIENTED_EDGE('',*,*,#253,.T.);
#306 = ORIENTED_EDGE('',*,*,#275,.T.);
#307 = ORIENTED_EDGE('',*,*,#291,.T.);
#308 = B_SPLINE_SURFACE_WITH_KNOTS('',1,1,(
    (#309,#310)
    ,(#311,#312
    )),.UNSPECIFIED.,.F.,.F.,.F.,(2,2),(2,2),(-102.5023987509,
    102.50239875093),(-162.5023987509,-13.49760124906),
  .PIECEWISE_BEZIER_KNOTS.);
#309 = CARTESIAN_POINT('',(-207.1854254368,50.998736518195,
    -130.6873206595));
#310 = CARTESIAN_POINT('',(-17.20901524321,50.998736518195,
    -130.6873206595));
#311 = CARTESIAN_POINT('',(-207.1854254368,50.998736518195,
    130.68732065955));
#312 = CARTESIAN_POINT('',(-17.20901524321,50.998736518195,
    130.68732065955));
#313 = ADVANCED_FACE('',(#314),#336,.T.);
#314 = FACE_BOUND('',#315,.T.);
#315 = EDGE_LOOP('',(#316,#317,#324,#331));
#316 = ORIENTED_EDGE('',*,*,#21,.F.);
#317 = ORIENTED_EDGE('',*,*,#318,.F.);
#318 = EDGE_CURVE('',#319,#22,#321,.T.);
#319 = VERTEX_POINT('',#320);
#320 = CARTESIAN_POINT('',(17.209015243214,50.998736518195,
    130.68732065955));
#321 = B_SPLINE_CURVE_WITH_KNOTS('',1,(#322,#323),.UNSPECIFIED.,.F.,.F.,
  (2,2),(-10.0459525275,4.970545533168),.PIECEWISE_BEZIER_KNOTS.);
#322 = CARTESIAN_POINT('',(17.209015243214,50.998736518195,
    130.68732065955));
#323 = CARTESIAN_POINT('',(16.574589368413,31.874210323872,
    131.32174653435));
#324 = ORIENTED_EDGE('',*,*,#325,.T.);
#325 = EDGE_CURVE('',#319,#326,#328,.T.);
#326 = VERTEX_POINT('',#327);
#327 = CARTESIAN_POINT('',(17.209015243214,50.998736518195,
    -130.6873206595));
#328 = B_SPLINE_CURVE_WITH_KNOTS('',1,(#329,#330),.UNSPECIFIED.,.F.,.F.,
  (2,2),(-205.5023987509,-0.497601249062),.PIECEWISE_BEZIER_KNOTS.);
#329 = CARTESIAN_POINT('',(17.209015243214,50.998736518195,
    130.68732065955));
#330 = CARTESIAN_POINT('',(17.209015243214,50.998736518195,
    -130.6873206595));
#331 = ORIENTED_EDGE('',*,*,#332,.T.);
#332 = EDGE_CURVE('',#326,#24,#333,.T.);
#333 = B_SPLINE_CURVE_WITH_KNOTS('',1,(#334,#335),.UNSPECIFIED.,.F.,.F.,
  (2,2),(-15.01649806067,-0.),.PIECEWISE_BEZIER_KNOTS.);
#334 = CARTESIAN_POINT('',(17.209015243214,50.998736518195,
    -130.6873206595));
#335 = CARTESIAN_POINT('',(16.574589368413,31.874210323872,
    -131.3217465343));
#336 = B_SPLINE_SURFACE_WITH_KNOTS('',1,1,(
    (#337,#338)
    ,(#339,#340)),.UNSPECIFIED.,.F.,.F.,.F.,(2,2),(2,2),(-15.0082512973,
    1.840482121625E-15),(0.,206.),.PIECEWISE_BEZIER_KNOTS.);
#337 = CARTESIAN_POINT('',(17.209015243214,50.998736518195,
    -131.3217465343));
#338 = CARTESIAN_POINT('',(17.209015243214,50.998736518195,
    131.32174653435));
#339 = CARTESIAN_POINT('',(16.574589368413,31.874210323872,
    -131.3217465343));
#340 = CARTESIAN_POINT('',(16.574589368413,31.874210323872,
    131.32174653435));
#341 = ADVANCED_FACE('',(#342),#358,.T.);
#342 = FACE_BOUND('',#343,.T.);
#343 = EDGE_LOOP('',(#344,#345,#352,#357));
#344 = ORIENTED_EDGE('',*,*,#44,.F.);
#345 = ORIENTED_EDGE('',*,*,#346,.F.);
#346 = EDGE_CURVE('',#347,#38,#349,.T.);
#347 = VERTEX_POINT('',#348);
#348 = CARTESIAN_POINT('',(207.18542543684,50.998736518195,
    130.68732065955));
#349 = B_SPLINE_CURVE_WITH_KNOTS('',1,(#350,#351),.UNSPECIFIED.,.F.,.F.,
  (2,2),(-8.19028219512,6.826215865551),.PIECEWISE_BEZIER_KNOTS.);
#350 = CARTESIAN_POINT('',(207.18542543684,50.998736518195,
    130.68732065955));
#351 = CARTESIAN_POINT('',(207.81985131164,31.874210323872,
    131.32174653435));
#352 = ORIENTED_EDGE('',*,*,#353,.T.);
#353 = EDGE_CURVE('',#347,#319,#354,.T.);
#354 = B_SPLINE_CURVE_WITH_KNOTS('',1,(#355,#356),.UNSPECIFIED.,.F.,.F.,
  (2,2),(0.497601249062,149.50239875093),.PIECEWISE_BEZIER_KNOTS.);
#355 = CARTESIAN_POINT('',(207.18542543684,50.998736518195,
    130.68732065955));
#356 = CARTESIAN_POINT('',(17.209015243214,50.998736518195,
    130.68732065955));
#357 = ORIENTED_EDGE('',*,*,#318,.T.);
#358 = B_SPLINE_SURFACE_WITH_KNOTS('',1,1,(
    (#359,#360)
    ,(#361,#362
    )),.UNSPECIFIED.,.F.,.F.,.F.,(2,2),(2,2),(-15.0082512973,0.),(-150.,
    0.),.PIECEWISE_BEZIER_KNOTS.);
#359 = CARTESIAN_POINT('',(16.574589368413,50.998736518195,
    130.68732065955));
#360 = CARTESIAN_POINT('',(207.81985131164,50.998736518195,
    130.68732065955));
#361 = CARTESIAN_POINT('',(16.574589368413,31.874210323872,
    131.32174653435));
#362 = CARTESIAN_POINT('',(207.81985131164,31.874210323872,
    131.32174653435));
#363 = ADVANCED_FACE('',(#364),#380,.T.);
#364 = FACE_BOUND('',#365,.T.);
#365 = EDGE_LOOP('',(#366,#367,#374,#379));
#366 = ORIENTED_EDGE('',*,*,#37,.F.);
#367 = ORIENTED_EDGE('',*,*,#368,.F.);
#368 = EDGE_CURVE('',#369,#31,#371,.T.);
#369 = VERTEX_POINT('',#370);
#370 = CARTESIAN_POINT('',(207.18542543684,50.998736518195,
    -130.6873206595));
#371 = B_SPLINE_CURVE_WITH_KNOTS('',1,(#372,#373),.UNSPECIFIED.,.F.,.F.,
  (2,2),(-15.01649806067,0.),.PIECEWISE_BEZIER_KNOTS.);
#372 = CARTESIAN_POINT('',(207.18542543684,50.998736518195,
    -130.6873206595));
#373 = CARTESIAN_POINT('',(207.81985131164,31.874210323872,
    -131.3217465343));
#374 = ORIENTED_EDGE('',*,*,#375,.T.);
#375 = EDGE_CURVE('',#369,#347,#376,.T.);
#376 = B_SPLINE_CURVE_WITH_KNOTS('',1,(#377,#378),.UNSPECIFIED.,.F.,.F.,
  (2,2),(0.497601249062,205.50239875093),.PIECEWISE_BEZIER_KNOTS.);
#377 = CARTESIAN_POINT('',(207.18542543684,50.998736518195,
    -130.6873206595));
#378 = CARTESIAN_POINT('',(207.18542543684,50.998736518195,
    130.68732065955));
#379 = ORIENTED_EDGE('',*,*,#346,.T.);
#380 = B_SPLINE_SURFACE_WITH_KNOTS('',1,1,(
    (#381,#382)
    ,(#383,#384
    )),.UNSPECIFIED.,.F.,.F.,.F.,(2,2),(2,2),(0.,15.008251297305),(0.,
    206.),.PIECEWISE_BEZIER_KNOTS.);
#381 = CARTESIAN_POINT('',(207.81985131164,31.874210323872,
    -131.3217465343));
#382 = CARTESIAN_POINT('',(207.81985131164,31.874210323872,
    131.32174653435));
#383 = CARTESIAN_POINT('',(207.18542543684,50.998736518195,
    -131.3217465343));
#384 = CARTESIAN_POINT('',(207.18542543684,50.998736518195,
    131.32174653435));
#385 = ADVANCED_FACE('',(#386),#396,.T.);
#386 = FACE_BOUND('',#387,.T.);
#387 = EDGE_LOOP('',(#388,#389,#390,#395));
#388 = ORIENTED_EDGE('',*,*,#30,.F.);
#389 = ORIENTED_EDGE('',*,*,#332,.F.);
#390 = ORIENTED_EDGE('',*,*,#391,.T.);
#391 = EDGE_CURVE('',#326,#369,#392,.T.);
#392 = B_SPLINE_CURVE_WITH_KNOTS('',1,(#393,#394),.UNSPECIFIED.,.F.,.F.,
  (2,2),(-149.5023987509,-0.497601249062),.PIECEWISE_BEZIER_KNOTS.);
#393 = CARTESIAN_POINT('',(17.209015243214,50.998736518195,
    -130.6873206595));
#394 = CARTESIAN_POINT('',(207.18542543684,50.998736518195,
    -130.6873206595));
#395 = ORIENTED_EDGE('',*,*,#368,.T.);
#396 = B_SPLINE_SURFACE_WITH_KNOTS('',1,1,(
    (#397,#398)
    ,(#399,#400
    )),.UNSPECIFIED.,.F.,.F.,.F.,(2,2),(2,2),(-1.413490269408E-15,
    15.008251297305),(-150.,0.),.PIECEWISE_BEZIER_KNOTS.);
#397 = CARTESIAN_POINT('',(16.574589368413,31.874210323872,
    -131.3217465343));
#398 = CARTESIAN_POINT('',(207.81985131164,31.874210323872,
    -131.3217465343));
#399 = CARTESIAN_POINT('',(16.574589368413,50.998736518195,
    -130.6873206595));
#400 = CARTESIAN_POINT('',(207.81985131164,50.998736518195,
    -130.6873206595));
#401 = ADVANCED_FACE('',(#402),#408,.T.);
#402 = FACE_BOUND('',#403,.T.);
#403 = EDGE_LOOP('',(#404,#405,#406,#407));
#404 = ORIENTED_EDGE('',*,*,#325,.F.);
#405 = ORIENTED_EDGE('',*,*,#353,.F.);
#406 = ORIENTED_EDGE('',*,*,#375,.F.);
#407 = ORIENTED_EDGE('',*,*,#391,.F.);
#408 = B_SPLINE_SURFACE_WITH_KNOTS('',1,1,(
    (#409,#410)
    ,(#411,#412
    )),.UNSPECIFIED.,.F.,.F.,.F.,(2,2),(2,2),(-102.5023987509,
    102.50239875093),(13.497601249062,162.50239875093),
  .PIECEWISE_BEZIER_KNOTS.);
#409 = CARTESIAN_POINT('',(17.209015243214,50.998736518195,
    -130.6873206595));
#410 = CARTESIAN_POINT('',(207.18542543684,50.998736518195,
    -130.6873206595));
#411 = CARTESIAN_POINT('',(17.209015243214,50.998736518195,
    130.68732065955));
#412 = CARTESIAN_POINT('',(207.18542543684,50.998736518195,
    130.68732065955));
#413 = ( GEOMETRIC_REPRESENTATION_CONTEXT(3) 
GLOBAL_UNCERTAINTY_ASSIGNED_CONTEXT((#417)) GLOBAL_UNIT_ASSIGNED_CONTEXT
((#414,#415,#416)) REPRESENTATION_CONTEXT('Context #1',
  '3D Context with UNIT and UNCERTAINTY') );
#414 = ( LENGTH_UNIT() NAMED_UNIT(*) SI_UNIT(.MILLI.,.METRE.) );
#415 = ( NAMED_UNIT(*) PLANE_ANGLE_UNIT() SI_UNIT($,.RADIAN.) );
#416 = ( NAMED_UNIT(*) SI_UNIT($,.STERADIAN.) SOLID_ANGLE_UNIT() );
#417 = UNCERTAINTY_MEASURE_WITH_UNIT(LENGTH_MEASURE(1.E-07),#414,
  'distance_accuracy_value','confusion accuracy');
#418 = PRODUCT_RELATED_PRODUCT_CATEGORY('part',$,(#7));
ENDSEC;
END-ISO-10303-21;
