ISO-10303-21;
HEADER;
FILE_DESCRIPTION(('FreeCAD Model'),'2;1');
FILE_NAME('Open CASCADE Shape Model','2025-04-29T19:13:01',('FreeCAD'),(
    'FreeCAD'),'Open CASCADE STEP processor 7.6','FreeCAD','Unknown');
FILE_SCHEMA(('AUTOMOTIVE_DESIGN { 1 0 10303 214 1 1 1 1 }'));
ENDSEC;
DATA;
#1 = APPLICATION_PROTOCOL_DEFINITION('international standard',
  'automotive_design',2000,#2);
#2 = APPLICATION_CONTEXT(
  'core data for automotive mechanical design processes');
#3 = SHAPE_DEFINITION_REPRESENTATION(#4,#10);
#4 = PRODUCT_DEFINITION_SHAPE('','',#5);
#5 = PRODUCT_DEFINITION('design','',#6,#9);
#6 = PRODUCT_DEFINITION_FORMATION('','',#7);
#7 = PRODUCT('Open CASCADE STEP translator 7.6 1',
  'Open CASCADE STEP translator 7.6 1','',(#8));
#8 = PRODUCT_CONTEXT('',#2,'mechanical');
#9 = PRODUCT_DEFINITION_CONTEXT('part definition',#2,'design');
#10 = ADVANCED_BREP_SHAPE_REPRESENTATION('',(#11,#15),#413);
#11 = AXIS2_PLACEMENT_3D('',#12,#13,#14);
#12 = CARTESIAN_POINT('',(0.,0.,0.));
#13 = DIRECTION('',(0.,0.,1.));
#14 = DIRECTION('',(1.,0.,-0.));
#15 = MANIFOLD_SOLID_BREP('',#16);
#16 = CLOSED_SHELL('',(#17,#53,#89,#117,#145,#181,#209,#237,#257,#313,
    #325,#341,#357,#377,#389,#401));
#17 = ADVANCED_FACE('',(#18),#48,.T.);
#18 = FACE_BOUND('',#19,.T.);
#19 = EDGE_LOOP('',(#20,#29,#36,#43));
#20 = ORIENTED_EDGE('',*,*,#21,.T.);
#21 = EDGE_CURVE('',#22,#24,#26,.T.);
#22 = VERTEX_POINT('',#23);
#23 = CARTESIAN_POINT('',(-185.8339373282,34.735315388457,
    116.36330655133));
#24 = VERTEX_POINT('',#25);
#25 = CARTESIAN_POINT('',(-17.94657961736,34.735315388457,
    116.36330655133));
#26 = B_SPLINE_CURVE_WITH_KNOTS('',1,(#27,#28),.UNSPECIFIED.,.F.,.F.,(2,
    2),(-321.,-176.),.PIECEWISE_BEZIER_KNOTS.);
#27 = CARTESIAN_POINT('',(-185.8339373282,34.735315388457,
    116.36330655133));
#28 = CARTESIAN_POINT('',(-17.94657961736,34.735315388457,
    116.36330655133));
#29 = ORIENTED_EDGE('',*,*,#30,.F.);
#30 = EDGE_CURVE('',#31,#24,#33,.T.);
#31 = VERTEX_POINT('',#32);
#32 = CARTESIAN_POINT('',(-17.94657961737,34.735315388457,
    -116.3633065513));
#33 = B_SPLINE_CURVE_WITH_KNOTS('',1,(#34,#35),.UNSPECIFIED.,.F.,.F.,(2,
    2),(-201.,5.684341886081E-14),.PIECEWISE_BEZIER_KNOTS.);
#34 = CARTESIAN_POINT('',(-17.94657961737,34.735315388457,
    -116.3633065513));
#35 = CARTESIAN_POINT('',(-17.94657961737,34.735315388457,
    116.36330655133));
#36 = ORIENTED_EDGE('',*,*,#37,.T.);
#37 = EDGE_CURVE('',#31,#38,#40,.T.);
#38 = VERTEX_POINT('',#39);
#39 = CARTESIAN_POINT('',(-185.8339373282,34.735315388457,
    -116.3633065513));
#40 = B_SPLINE_CURVE_WITH_KNOTS('',1,(#41,#42),.UNSPECIFIED.,.F.,.F.,(2,
    2),(176.,321.),.PIECEWISE_BEZIER_KNOTS.);
#41 = CARTESIAN_POINT('',(-17.94657961736,34.735315388457,
    -116.3633065513));
#42 = CARTESIAN_POINT('',(-185.8339373282,34.735315388457,
    -116.3633065513));
#43 = ORIENTED_EDGE('',*,*,#44,.T.);
#44 = EDGE_CURVE('',#38,#22,#45,.T.);
#45 = B_SPLINE_CURVE_WITH_KNOTS('',1,(#46,#47),.UNSPECIFIED.,.F.,.F.,(2,
    2),(-201.,0.),.PIECEWISE_BEZIER_KNOTS.);
#46 = CARTESIAN_POINT('',(-185.8339373282,34.735315388457,
    -116.3633065513));
#47 = CARTESIAN_POINT('',(-185.8339373282,34.735315388457,
    116.36330655133));
#48 = B_SPLINE_SURFACE_WITH_KNOTS('',1,1,(
    (#49,#50)
    ,(#51,#52
    )),.UNSPECIFIED.,.F.,.F.,.F.,(2,2),(2,2),(-100.5,100.5),(-160.5,
    -15.5),.PIECEWISE_BEZIER_KNOTS.);
#49 = CARTESIAN_POINT('',(-185.8339373282,34.735315388457,
    -116.3633065513));
#50 = CARTESIAN_POINT('',(-17.94657961736,34.735315388457,
    -116.3633065513));
#51 = CARTESIAN_POINT('',(-185.8339373282,34.735315388457,
    116.36330655133));
#52 = CARTESIAN_POINT('',(-17.94657961736,34.735315388457,
    116.36330655133));
#53 = ADVANCED_FACE('',(#54),#84,.T.);
#54 = FACE_BOUND('',#55,.T.);
#55 = EDGE_LOOP('',(#56,#65,#72,#79));
#56 = ORIENTED_EDGE('',*,*,#57,.T.);
#57 = EDGE_CURVE('',#58,#60,#62,.T.);
#58 = VERTEX_POINT('',#59);
#59 = CARTESIAN_POINT('',(185.83393732824,34.735315388457,
    -116.3633065513));
#60 = VERTEX_POINT('',#61);
#61 = CARTESIAN_POINT('',(17.94657961737,34.735315388457,-116.3633065513
    ));
#62 = B_SPLINE_CURVE_WITH_KNOTS('',1,(#63,#64),.UNSPECIFIED.,.F.,.F.,(2,
    2),(0.,145.),.PIECEWISE_BEZIER_KNOTS.);
#63 = CARTESIAN_POINT('',(185.83393732824,34.735315388457,
    -116.3633065513));
#64 = CARTESIAN_POINT('',(17.94657961737,34.735315388457,-116.3633065513
    ));
#65 = ORIENTED_EDGE('',*,*,#66,.F.);
#66 = EDGE_CURVE('',#67,#60,#69,.T.);
#67 = VERTEX_POINT('',#68);
#68 = CARTESIAN_POINT('',(17.94657961737,34.735315388457,116.36330655133
    ));
#69 = B_SPLINE_CURVE_WITH_KNOTS('',1,(#70,#71),.UNSPECIFIED.,.F.,.F.,(2,
    2),(-5.684341886081E-14,201.),.PIECEWISE_BEZIER_KNOTS.);
#70 = CARTESIAN_POINT('',(17.94657961737,34.735315388457,116.36330655133
    ));
#71 = CARTESIAN_POINT('',(17.94657961737,34.735315388457,-116.3633065513
    ));
#72 = ORIENTED_EDGE('',*,*,#73,.T.);
#73 = EDGE_CURVE('',#67,#74,#76,.T.);
#74 = VERTEX_POINT('',#75);
#75 = CARTESIAN_POINT('',(185.83393732824,34.735315388457,
    116.36330655133));
#76 = B_SPLINE_CURVE_WITH_KNOTS('',1,(#77,#78),.UNSPECIFIED.,.F.,.F.,(2,
    2),(-145.,0.),.PIECEWISE_BEZIER_KNOTS.);
#77 = CARTESIAN_POINT('',(17.94657961737,34.735315388457,116.36330655133
    ));
#78 = CARTESIAN_POINT('',(185.83393732824,34.735315388457,
    116.36330655133));
#79 = ORIENTED_EDGE('',*,*,#80,.T.);
#80 = EDGE_CURVE('',#74,#58,#81,.T.);
#81 = B_SPLINE_CURVE_WITH_KNOTS('',1,(#82,#83),.UNSPECIFIED.,.F.,.F.,(2,
    2),(0.,201.),.PIECEWISE_BEZIER_KNOTS.);
#82 = CARTESIAN_POINT('',(185.83393732824,34.735315388457,
    116.36330655133));
#83 = CARTESIAN_POINT('',(185.83393732824,34.735315388457,
    -116.3633065513));
#84 = B_SPLINE_SURFACE_WITH_KNOTS('',1,1,(
    (#85,#86)
    ,(#87,#88
    )),.UNSPECIFIED.,.F.,.F.,.F.,(2,2),(2,2),(-100.5,100.5),(15.5,160.5)
  ,.PIECEWISE_BEZIER_KNOTS.);
#85 = CARTESIAN_POINT('',(17.94657961737,34.735315388457,-116.3633065513
    ));
#86 = CARTESIAN_POINT('',(185.83393732824,34.735315388457,
    -116.3633065513));
#87 = CARTESIAN_POINT('',(17.94657961737,34.735315388457,116.36330655133
    ));
#88 = CARTESIAN_POINT('',(185.83393732824,34.735315388457,
    116.36330655133));
#89 = ADVANCED_FACE('',(#90),#112,.F.);
#90 = FACE_BOUND('',#91,.T.);
#91 = EDGE_LOOP('',(#92,#99,#106,#111));
#92 = ORIENTED_EDGE('',*,*,#93,.F.);
#93 = EDGE_CURVE('',#94,#67,#96,.T.);
#94 = VERTEX_POINT('',#95);
#95 = CARTESIAN_POINT('',(15.051970001665,260.51486541342,
    119.25791616703));
#96 = B_SPLINE_CURVE_WITH_KNOTS('',1,(#97,#98),.UNSPECIFIED.,.F.,.F.,(2,
    2),(0.,195.03204864842),.PIECEWISE_BEZIER_KNOTS.);
#97 = CARTESIAN_POINT('',(15.051970001665,260.51486541342,
    119.25791616703));
#98 = CARTESIAN_POINT('',(17.94657961737,34.735315388457,116.36330655133
    ));
#99 = ORIENTED_EDGE('',*,*,#100,.T.);
#100 = EDGE_CURVE('',#94,#101,#103,.T.);
#101 = VERTEX_POINT('',#102);
#102 = CARTESIAN_POINT('',(188.72854694395,260.51486541342,
    119.25791616703));
#103 = B_SPLINE_CURVE_WITH_KNOTS('',1,(#104,#105),.UNSPECIFIED.,.F.,.F.,
  (2,2),(-150.,-2.84217094304E-14),.PIECEWISE_BEZIER_KNOTS.);
#104 = CARTESIAN_POINT('',(15.051970001665,260.51486541342,
    119.25791616703));
#105 = CARTESIAN_POINT('',(188.72854694395,260.51486541342,
    119.25791616703));
#106 = ORIENTED_EDGE('',*,*,#107,.T.);
#107 = EDGE_CURVE('',#101,#74,#108,.T.);
#108 = B_SPLINE_CURVE_WITH_KNOTS('',1,(#109,#110),.UNSPECIFIED.,.F.,.F.,
  (2,2),(3.643210132305E-16,195.03204864842),.PIECEWISE_BEZIER_KNOTS.);
#109 = CARTESIAN_POINT('',(188.72854694395,260.51486541342,
    119.25791616703));
#110 = CARTESIAN_POINT('',(185.83393732824,34.735315388457,
    116.36330655133));
#111 = ORIENTED_EDGE('',*,*,#73,.F.);
#112 = B_SPLINE_SURFACE_WITH_KNOTS('',1,1,(
    (#113,#114)
    ,(#115,#116
    )),.UNSPECIFIED.,.F.,.F.,.F.,(2,2),(2,2),(-226.3019154653,
    -31.28589048282),(13.,163.),.PIECEWISE_BEZIER_KNOTS.);
#113 = CARTESIAN_POINT('',(15.051970001665,260.51486541342,
    119.25791616703));
#114 = CARTESIAN_POINT('',(188.72854694395,260.51486541342,
    119.25791616703));
#115 = CARTESIAN_POINT('',(15.051970001665,34.735315388457,
    116.36330655133));
#116 = CARTESIAN_POINT('',(188.72854694395,34.735315388457,
    116.36330655133));
#117 = ADVANCED_FACE('',(#118),#140,.F.);
#118 = FACE_BOUND('',#119,.T.);
#119 = EDGE_LOOP('',(#120,#127,#134,#139));
#120 = ORIENTED_EDGE('',*,*,#121,.F.);
#121 = EDGE_CURVE('',#122,#31,#124,.T.);
#122 = VERTEX_POINT('',#123);
#123 = CARTESIAN_POINT('',(-15.05197000166,260.51486541342,
    -119.257916167));
#124 = B_SPLINE_CURVE_WITH_KNOTS('',1,(#125,#126),.UNSPECIFIED.,.F.,.F.,
  (2,2),(-5.464815198457E-16,195.03204864842),.PIECEWISE_BEZIER_KNOTS.);
#125 = CARTESIAN_POINT('',(-15.05197000166,260.51486541342,
    -119.257916167));
#126 = CARTESIAN_POINT('',(-17.94657961737,34.735315388457,
    -116.3633065513));
#127 = ORIENTED_EDGE('',*,*,#128,.T.);
#128 = EDGE_CURVE('',#122,#129,#131,.T.);
#129 = VERTEX_POINT('',#130);
#130 = CARTESIAN_POINT('',(-188.7285469439,260.51486541342,
    -119.257916167));
#131 = B_SPLINE_CURVE_WITH_KNOTS('',1,(#132,#133),.UNSPECIFIED.,.F.,.F.,
  (2,2),(176.,326.),.PIECEWISE_BEZIER_KNOTS.);
#132 = CARTESIAN_POINT('',(-15.05197000166,260.51486541342,
    -119.257916167));
#133 = CARTESIAN_POINT('',(-188.7285469439,260.51486541342,
    -119.257916167));
#134 = ORIENTED_EDGE('',*,*,#135,.T.);
#135 = EDGE_CURVE('',#129,#38,#136,.T.);
#136 = B_SPLINE_CURVE_WITH_KNOTS('',1,(#137,#138),.UNSPECIFIED.,.F.,.F.,
  (2,2),(0.,195.03204864842),.PIECEWISE_BEZIER_KNOTS.);
#137 = CARTESIAN_POINT('',(-188.7285469439,260.51486541342,
    -119.257916167));
#138 = CARTESIAN_POINT('',(-185.8339373282,34.735315388457,
    -116.3633065513));
#139 = ORIENTED_EDGE('',*,*,#37,.F.);
#140 = B_SPLINE_SURFACE_WITH_KNOTS('',1,1,(
    (#141,#142)
    ,(#143,#144
    )),.UNSPECIFIED.,.F.,.F.,.F.,(2,2),(2,2),(31.285890482823,
    226.30191546538),(-163.,-13.),.PIECEWISE_BEZIER_KNOTS.);
#141 = CARTESIAN_POINT('',(-188.7285469439,34.735315388457,
    -116.3633065513));
#142 = CARTESIAN_POINT('',(-15.05197000166,34.735315388457,
    -116.3633065513));
#143 = CARTESIAN_POINT('',(-188.7285469439,260.51486541342,
    -119.257916167));
#144 = CARTESIAN_POINT('',(-15.05197000166,260.51486541342,
    -119.257916167));
#145 = ADVANCED_FACE('',(#146),#176,.F.);
#146 = FACE_BOUND('',#147,.T.);
#147 = EDGE_LOOP('',(#148,#157,#164,#171));
#148 = ORIENTED_EDGE('',*,*,#149,.T.);
#149 = EDGE_CURVE('',#150,#152,#154,.T.);
#150 = VERTEX_POINT('',#151);
#151 = CARTESIAN_POINT('',(-208.4118923307,0.,-138.9412615538));
#152 = VERTEX_POINT('',#153);
#153 = CARTESIAN_POINT('',(-208.4118923307,0.,138.94126155382));
#154 = B_SPLINE_CURVE_WITH_KNOTS('',1,(#155,#156),.UNSPECIFIED.,.F.,.F.,
  (2,2),(-240.,0.),.PIECEWISE_BEZIER_KNOTS.);
#155 = CARTESIAN_POINT('',(-208.4118923307,0.,-138.9412615538));
#156 = CARTESIAN_POINT('',(-208.4118923307,0.,138.94126155382));
#157 = ORIENTED_EDGE('',*,*,#158,.F.);
#158 = EDGE_CURVE('',#159,#152,#161,.T.);
#159 = VERTEX_POINT('',#160);
#160 = CARTESIAN_POINT('',(-208.4118923307,260.51486541342,
    138.94126155382));
#161 = B_SPLINE_CURVE_WITH_KNOTS('',1,(#162,#163),.UNSPECIFIED.,.F.,.F.,
  (2,2),(-0.,225.),.PIECEWISE_BEZIER_KNOTS.);
#162 = CARTESIAN_POINT('',(-208.4118923307,260.51486541342,
    138.94126155382));
#163 = CARTESIAN_POINT('',(-208.4118923307,0.,138.94126155382));
#164 = ORIENTED_EDGE('',*,*,#165,.F.);
#165 = EDGE_CURVE('',#166,#159,#168,.T.);
#166 = VERTEX_POINT('',#167);
#167 = CARTESIAN_POINT('',(-208.4118923307,260.51486541342,
    -138.9412615538));
#168 = B_SPLINE_CURVE_WITH_KNOTS('',1,(#169,#170),.UNSPECIFIED.,.F.,.F.,
  (2,2),(-240.,0.),.PIECEWISE_BEZIER_KNOTS.);
#169 = CARTESIAN_POINT('',(-208.4118923307,260.51486541342,
    -138.9412615538));
#170 = CARTESIAN_POINT('',(-208.4118923307,260.51486541342,
    138.94126155382));
#171 = ORIENTED_EDGE('',*,*,#172,.T.);
#172 = EDGE_CURVE('',#166,#150,#173,.T.);
#173 = B_SPLINE_CURVE_WITH_KNOTS('',1,(#174,#175),.UNSPECIFIED.,.F.,.F.,
  (2,2),(-0.,225.),.PIECEWISE_BEZIER_KNOTS.);
#174 = CARTESIAN_POINT('',(-208.4118923307,260.51486541342,
    -138.9412615538));
#175 = CARTESIAN_POINT('',(-208.4118923307,0.,-138.9412615538));
#176 = B_SPLINE_SURFACE_WITH_KNOTS('',1,1,(
    (#177,#178)
    ,(#179,#180
    )),.UNSPECIFIED.,.F.,.F.,.F.,(2,2),(2,2),(0.,240.),(-225.,0.),
  .PIECEWISE_BEZIER_KNOTS.);
#177 = CARTESIAN_POINT('',(-208.4118923307,0.,138.94126155382));
#178 = CARTESIAN_POINT('',(-208.4118923307,260.51486541342,
    138.94126155382));
#179 = CARTESIAN_POINT('',(-208.4118923307,0.,-138.9412615538));
#180 = CARTESIAN_POINT('',(-208.4118923307,260.51486541342,
    -138.9412615538));
#181 = ADVANCED_FACE('',(#182),#204,.F.);
#182 = FACE_BOUND('',#183,.T.);
#183 = EDGE_LOOP('',(#184,#191,#198,#203));
#184 = ORIENTED_EDGE('',*,*,#185,.T.);
#185 = EDGE_CURVE('',#152,#186,#188,.T.);
#186 = VERTEX_POINT('',#187);
#187 = CARTESIAN_POINT('',(208.41189233074,0.,138.94126155382));
#188 = B_SPLINE_CURVE_WITH_KNOTS('',1,(#189,#190),.UNSPECIFIED.,.F.,.F.,
  (2,2),(-360.,0.),.PIECEWISE_BEZIER_KNOTS.);
#189 = CARTESIAN_POINT('',(-208.4118923307,0.,138.94126155382));
#190 = CARTESIAN_POINT('',(208.41189233074,0.,138.94126155382));
#191 = ORIENTED_EDGE('',*,*,#192,.F.);
#192 = EDGE_CURVE('',#193,#186,#195,.T.);
#193 = VERTEX_POINT('',#194);
#194 = CARTESIAN_POINT('',(208.41189233074,260.51486541342,
    138.94126155382));
#195 = B_SPLINE_CURVE_WITH_KNOTS('',1,(#196,#197),.UNSPECIFIED.,.F.,.F.,
  (2,2),(-0.,225.),.PIECEWISE_BEZIER_KNOTS.);
#196 = CARTESIAN_POINT('',(208.41189233074,260.51486541342,
    138.94126155382));
#197 = CARTESIAN_POINT('',(208.41189233074,0.,138.94126155382));
#198 = ORIENTED_EDGE('',*,*,#199,.F.);
#199 = EDGE_CURVE('',#159,#193,#200,.T.);
#200 = B_SPLINE_CURVE_WITH_KNOTS('',1,(#201,#202),.UNSPECIFIED.,.F.,.F.,
  (2,2),(-360.,0.),.PIECEWISE_BEZIER_KNOTS.);
#201 = CARTESIAN_POINT('',(-208.4118923307,260.51486541342,
    138.94126155382));
#202 = CARTESIAN_POINT('',(208.41189233074,260.51486541342,
    138.94126155382));
#203 = ORIENTED_EDGE('',*,*,#158,.T.);
#204 = B_SPLINE_SURFACE_WITH_KNOTS('',1,1,(
    (#205,#206)
    ,(#207,#208
    )),.UNSPECIFIED.,.F.,.F.,.F.,(2,2),(2,2),(0.,360.),(-225.,0.),
  .PIECEWISE_BEZIER_KNOTS.);
#205 = CARTESIAN_POINT('',(208.41189233074,0.,138.94126155382));
#206 = CARTESIAN_POINT('',(208.41189233074,260.51486541342,
    138.94126155382));
#207 = CARTESIAN_POINT('',(-208.4118923307,0.,138.94126155382));
#208 = CARTESIAN_POINT('',(-208.4118923307,260.51486541342,
    138.94126155382));
#209 = ADVANCED_FACE('',(#210),#232,.F.);
#210 = FACE_BOUND('',#211,.T.);
#211 = EDGE_LOOP('',(#212,#219,#226,#231));
#212 = ORIENTED_EDGE('',*,*,#213,.T.);
#213 = EDGE_CURVE('',#186,#214,#216,.T.);
#214 = VERTEX_POINT('',#215);
#215 = CARTESIAN_POINT('',(208.41189233074,0.,-138.9412615538));
#216 = B_SPLINE_CURVE_WITH_KNOTS('',1,(#217,#218),.UNSPECIFIED.,.F.,.F.,
  (2,2),(0.,240.),.PIECEWISE_BEZIER_KNOTS.);
#217 = CARTESIAN_POINT('',(208.41189233074,0.,138.94126155382));
#218 = CARTESIAN_POINT('',(208.41189233074,0.,-138.9412615538));
#219 = ORIENTED_EDGE('',*,*,#220,.F.);
#220 = EDGE_CURVE('',#221,#214,#223,.T.);
#221 = VERTEX_POINT('',#222);
#222 = CARTESIAN_POINT('',(208.41189233074,260.51486541342,
    -138.9412615538));
#223 = B_SPLINE_CURVE_WITH_KNOTS('',1,(#224,#225),.UNSPECIFIED.,.F.,.F.,
  (2,2),(-0.,225.),.PIECEWISE_BEZIER_KNOTS.);
#224 = CARTESIAN_POINT('',(208.41189233074,260.51486541342,
    -138.9412615538));
#225 = CARTESIAN_POINT('',(208.41189233074,0.,-138.9412615538));
#226 = ORIENTED_EDGE('',*,*,#227,.F.);
#227 = EDGE_CURVE('',#193,#221,#228,.T.);
#228 = B_SPLINE_CURVE_WITH_KNOTS('',1,(#229,#230),.UNSPECIFIED.,.F.,.F.,
  (2,2),(0.,240.),.PIECEWISE_BEZIER_KNOTS.);
#229 = CARTESIAN_POINT('',(208.41189233074,260.51486541342,
    138.94126155382));
#230 = CARTESIAN_POINT('',(208.41189233074,260.51486541342,
    -138.9412615538));
#231 = ORIENTED_EDGE('',*,*,#192,.T.);
#232 = B_SPLINE_SURFACE_WITH_KNOTS('',1,1,(
    (#233,#234)
    ,(#235,#236
    )),.UNSPECIFIED.,.F.,.F.,.F.,(2,2),(2,2),(-240.,0.),(-225.,0.),
  .PIECEWISE_BEZIER_KNOTS.);
#233 = CARTESIAN_POINT('',(208.41189233074,0.,-138.9412615538));
#234 = CARTESIAN_POINT('',(208.41189233074,260.51486541342,
    -138.9412615538));
#235 = CARTESIAN_POINT('',(208.41189233074,0.,138.94126155382));
#236 = CARTESIAN_POINT('',(208.41189233074,260.51486541342,
    138.94126155382));
#237 = ADVANCED_FACE('',(#238),#252,.F.);
#238 = FACE_BOUND('',#239,.T.);
#239 = EDGE_LOOP('',(#240,#245,#246,#251));
#240 = ORIENTED_EDGE('',*,*,#241,.T.);
#241 = EDGE_CURVE('',#214,#150,#242,.T.);
#242 = B_SPLINE_CURVE_WITH_KNOTS('',1,(#243,#244),.UNSPECIFIED.,.F.,.F.,
  (2,2),(0.,360.),.PIECEWISE_BEZIER_KNOTS.);
#243 = CARTESIAN_POINT('',(208.41189233074,0.,-138.9412615538));
#244 = CARTESIAN_POINT('',(-208.4118923307,0.,-138.9412615538));
#245 = ORIENTED_EDGE('',*,*,#172,.F.);
#246 = ORIENTED_EDGE('',*,*,#247,.F.);
#247 = EDGE_CURVE('',#221,#166,#248,.T.);
#248 = B_SPLINE_CURVE_WITH_KNOTS('',1,(#249,#250),.UNSPECIFIED.,.F.,.F.,
  (2,2),(0.,360.),.PIECEWISE_BEZIER_KNOTS.);
#249 = CARTESIAN_POINT('',(208.41189233074,260.51486541342,
    -138.9412615538));
#250 = CARTESIAN_POINT('',(-208.4118923307,260.51486541342,
    -138.9412615538));
#251 = ORIENTED_EDGE('',*,*,#220,.T.);
#252 = B_SPLINE_SURFACE_WITH_KNOTS('',1,1,(
    (#253,#254)
    ,(#255,#256
    )),.UNSPECIFIED.,.F.,.F.,.F.,(2,2),(2,2),(-360.,0.),(-225.,0.),
  .PIECEWISE_BEZIER_KNOTS.);
#253 = CARTESIAN_POINT('',(-208.4118923307,0.,-138.9412615538));
#254 = CARTESIAN_POINT('',(-208.4118923307,260.51486541342,
    -138.9412615538));
#255 = CARTESIAN_POINT('',(208.41189233074,0.,-138.9412615538));
#256 = CARTESIAN_POINT('',(208.41189233074,260.51486541342,
    -138.9412615538));
#257 = ADVANCED_FACE('',(#258,#280,#302),#308,.T.);
#258 = FACE_BOUND('',#259,.T.);
#259 = EDGE_LOOP('',(#260,#261,#268,#275));
#260 = ORIENTED_EDGE('',*,*,#128,.F.);
#261 = ORIENTED_EDGE('',*,*,#262,.T.);
#262 = EDGE_CURVE('',#122,#263,#265,.T.);
#263 = VERTEX_POINT('',#264);
#264 = CARTESIAN_POINT('',(-15.05197000166,260.51486541342,
    119.25791616703));
#265 = B_SPLINE_CURVE_WITH_KNOTS('',1,(#266,#267),.UNSPECIFIED.,.F.,.F.,
  (2,2),(-206.,0.),.PIECEWISE_BEZIER_KNOTS.);
#266 = CARTESIAN_POINT('',(-15.05197000166,260.51486541342,
    -119.257916167));
#267 = CARTESIAN_POINT('',(-15.05197000166,260.51486541342,
    119.25791616703));
#268 = ORIENTED_EDGE('',*,*,#269,.F.);
#269 = EDGE_CURVE('',#270,#263,#272,.T.);
#270 = VERTEX_POINT('',#271);
#271 = CARTESIAN_POINT('',(-188.7285469439,260.51486541342,
    119.25791616703));
#272 = B_SPLINE_CURVE_WITH_KNOTS('',1,(#273,#274),.UNSPECIFIED.,.F.,.F.,
  (2,2),(-326.,-176.),.PIECEWISE_BEZIER_KNOTS.);
#273 = CARTESIAN_POINT('',(-188.7285469439,260.51486541342,
    119.25791616703));
#274 = CARTESIAN_POINT('',(-15.05197000166,260.51486541342,
    119.25791616703));
#275 = ORIENTED_EDGE('',*,*,#276,.F.);
#276 = EDGE_CURVE('',#129,#270,#277,.T.);
#277 = B_SPLINE_CURVE_WITH_KNOTS('',1,(#278,#279),.UNSPECIFIED.,.F.,.F.,
  (2,2),(-206.,0.),.PIECEWISE_BEZIER_KNOTS.);
#278 = CARTESIAN_POINT('',(-188.7285469439,260.51486541342,
    -119.257916167));
#279 = CARTESIAN_POINT('',(-188.7285469439,260.51486541342,
    119.25791616703));
#280 = FACE_BOUND('',#281,.T.);
#281 = EDGE_LOOP('',(#282,#289,#296,#301));
#282 = ORIENTED_EDGE('',*,*,#283,.T.);
#283 = EDGE_CURVE('',#94,#284,#286,.T.);
#284 = VERTEX_POINT('',#285);
#285 = CARTESIAN_POINT('',(15.051970001665,260.51486541342,
    -119.257916167));
#286 = B_SPLINE_CURVE_WITH_KNOTS('',1,(#287,#288),.UNSPECIFIED.,.F.,.F.,
  (2,2),(0.,206.),.PIECEWISE_BEZIER_KNOTS.);
#287 = CARTESIAN_POINT('',(15.051970001665,260.51486541342,
    119.25791616703));
#288 = CARTESIAN_POINT('',(15.051970001665,260.51486541342,
    -119.257916167));
#289 = ORIENTED_EDGE('',*,*,#290,.F.);
#290 = EDGE_CURVE('',#291,#284,#293,.T.);
#291 = VERTEX_POINT('',#292);
#292 = CARTESIAN_POINT('',(188.72854694395,260.51486541342,
    -119.257916167));
#293 = B_SPLINE_CURVE_WITH_KNOTS('',1,(#294,#295),.UNSPECIFIED.,.F.,.F.,
  (2,2),(0.,150.),.PIECEWISE_BEZIER_KNOTS.);
#294 = CARTESIAN_POINT('',(188.72854694395,260.51486541342,
    -119.257916167));
#295 = CARTESIAN_POINT('',(15.051970001665,260.51486541342,
    -119.257916167));
#296 = ORIENTED_EDGE('',*,*,#297,.F.);
#297 = EDGE_CURVE('',#101,#291,#298,.T.);
#298 = B_SPLINE_CURVE_WITH_KNOTS('',1,(#299,#300),.UNSPECIFIED.,.F.,.F.,
  (2,2),(0.,206.),.PIECEWISE_BEZIER_KNOTS.);
#299 = CARTESIAN_POINT('',(188.72854694395,260.51486541342,
    119.25791616703));
#300 = CARTESIAN_POINT('',(188.72854694395,260.51486541342,
    -119.257916167));
#301 = ORIENTED_EDGE('',*,*,#100,.F.);
#302 = FACE_BOUND('',#303,.T.);
#303 = EDGE_LOOP('',(#304,#305,#306,#307));
#304 = ORIENTED_EDGE('',*,*,#165,.T.);
#305 = ORIENTED_EDGE('',*,*,#199,.T.);
#306 = ORIENTED_EDGE('',*,*,#227,.T.);
#307 = ORIENTED_EDGE('',*,*,#247,.T.);
#308 = B_SPLINE_SURFACE_WITH_KNOTS('',1,1,(
    (#309,#310)
    ,(#311,#312
    )),.UNSPECIFIED.,.F.,.F.,.F.,(2,2),(2,2),(-120.,120.),(-180.,180.),
  .PIECEWISE_BEZIER_KNOTS.);
#309 = CARTESIAN_POINT('',(-208.4118923307,260.51486541342,
    -138.9412615538));
#310 = CARTESIAN_POINT('',(208.41189233074,260.51486541342,
    -138.9412615538));
#311 = CARTESIAN_POINT('',(-208.4118923307,260.51486541342,
    138.94126155382));
#312 = CARTESIAN_POINT('',(208.41189233074,260.51486541342,
    138.94126155382));
#313 = ADVANCED_FACE('',(#314),#320,.F.);
#314 = FACE_BOUND('',#315,.T.);
#315 = EDGE_LOOP('',(#316,#317,#318,#319));
#316 = ORIENTED_EDGE('',*,*,#149,.F.);
#317 = ORIENTED_EDGE('',*,*,#241,.F.);
#318 = ORIENTED_EDGE('',*,*,#213,.F.);
#319 = ORIENTED_EDGE('',*,*,#185,.F.);
#320 = B_SPLINE_SURFACE_WITH_KNOTS('',1,1,(
    (#321,#322)
    ,(#323,#324
    )),.UNSPECIFIED.,.F.,.F.,.F.,(2,2),(2,2),(-120.,120.),(-180.,180.),
  .PIECEWISE_BEZIER_KNOTS.);
#321 = CARTESIAN_POINT('',(-208.4118923307,0.,-138.9412615538));
#322 = CARTESIAN_POINT('',(208.41189233074,0.,-138.9412615538));
#323 = CARTESIAN_POINT('',(-208.4118923307,0.,138.94126155382));
#324 = CARTESIAN_POINT('',(208.41189233074,0.,138.94126155382));
#325 = ADVANCED_FACE('',(#326),#336,.F.);
#326 = FACE_BOUND('',#327,.T.);
#327 = EDGE_LOOP('',(#328,#329,#330,#335));
#328 = ORIENTED_EDGE('',*,*,#135,.F.);
#329 = ORIENTED_EDGE('',*,*,#276,.T.);
#330 = ORIENTED_EDGE('',*,*,#331,.T.);
#331 = EDGE_CURVE('',#270,#22,#332,.T.);
#332 = B_SPLINE_CURVE_WITH_KNOTS('',1,(#333,#334),.UNSPECIFIED.,.F.,.F.,
  (2,2),(0.,195.03204864842),.PIECEWISE_BEZIER_KNOTS.);
#333 = CARTESIAN_POINT('',(-188.7285469439,260.51486541342,
    119.25791616703));
#334 = CARTESIAN_POINT('',(-185.8339373282,34.735315388457,
    116.36330655133));
#335 = ORIENTED_EDGE('',*,*,#44,.F.);
#336 = B_SPLINE_SURFACE_WITH_KNOTS('',1,1,(
    (#337,#338)
    ,(#339,#340
    )),.UNSPECIFIED.,.F.,.F.,.F.,(2,2),(2,2),(-227.0710830248,
    -32.05505804232),(-103.,103.),.PIECEWISE_BEZIER_KNOTS.);
#337 = CARTESIAN_POINT('',(-188.7285469439,260.51486541342,
    -119.257916167));
#338 = CARTESIAN_POINT('',(-188.7285469439,260.51486541342,
    119.25791616703));
#339 = CARTESIAN_POINT('',(-185.8339373282,34.735315388457,
    -119.257916167));
#340 = CARTESIAN_POINT('',(-185.8339373282,34.735315388457,
    119.25791616703));
#341 = ADVANCED_FACE('',(#342),#352,.F.);
#342 = FACE_BOUND('',#343,.T.);
#343 = EDGE_LOOP('',(#344,#345,#350,#351));
#344 = ORIENTED_EDGE('',*,*,#269,.T.);
#345 = ORIENTED_EDGE('',*,*,#346,.T.);
#346 = EDGE_CURVE('',#263,#24,#347,.T.);
#347 = B_SPLINE_CURVE_WITH_KNOTS('',1,(#348,#349),.UNSPECIFIED.,.F.,.F.,
  (2,2),(-1.821605066152E-16,195.03204864842),.PIECEWISE_BEZIER_KNOTS.);
#348 = CARTESIAN_POINT('',(-15.05197000166,260.51486541342,
    119.25791616703));
#349 = CARTESIAN_POINT('',(-17.94657961737,34.735315388457,
    116.36330655133));
#350 = ORIENTED_EDGE('',*,*,#21,.F.);
#351 = ORIENTED_EDGE('',*,*,#331,.F.);
#352 = B_SPLINE_SURFACE_WITH_KNOTS('',1,1,(
    (#353,#354)
    ,(#355,#356
    )),.UNSPECIFIED.,.F.,.F.,.F.,(2,2),(2,2),(-226.3019154653,
    -31.28589048282),(-163.,-13.),.PIECEWISE_BEZIER_KNOTS.);
#353 = CARTESIAN_POINT('',(-188.7285469439,260.51486541342,
    119.25791616703));
#354 = CARTESIAN_POINT('',(-15.05197000166,260.51486541342,
    119.25791616703));
#355 = CARTESIAN_POINT('',(-188.7285469439,34.735315388457,
    116.36330655133));
#356 = CARTESIAN_POINT('',(-15.05197000166,34.735315388457,
    116.36330655133));
#357 = ADVANCED_FACE('',(#358),#372,.F.);
#358 = FACE_BOUND('',#359,.T.);
#359 = EDGE_LOOP('',(#360,#361,#366,#367));
#360 = ORIENTED_EDGE('',*,*,#290,.T.);
#361 = ORIENTED_EDGE('',*,*,#362,.T.);
#362 = EDGE_CURVE('',#284,#60,#363,.T.);
#363 = B_SPLINE_CURVE_WITH_KNOTS('',1,(#364,#365),.UNSPECIFIED.,.F.,.F.,
  (2,2),(1.138503166345E-16,195.03204864842),.PIECEWISE_BEZIER_KNOTS.);
#364 = CARTESIAN_POINT('',(15.051970001665,260.51486541342,
    -119.257916167));
#365 = CARTESIAN_POINT('',(17.94657961737,34.735315388457,
    -116.3633065513));
#366 = ORIENTED_EDGE('',*,*,#57,.F.);
#367 = ORIENTED_EDGE('',*,*,#368,.F.);
#368 = EDGE_CURVE('',#291,#58,#369,.T.);
#369 = B_SPLINE_CURVE_WITH_KNOTS('',1,(#370,#371),.UNSPECIFIED.,.F.,.F.,
  (2,2),(0.,195.03204864842),.PIECEWISE_BEZIER_KNOTS.);
#370 = CARTESIAN_POINT('',(188.72854694395,260.51486541342,
    -119.257916167));
#371 = CARTESIAN_POINT('',(185.83393732824,34.735315388457,
    -116.3633065513));
#372 = B_SPLINE_SURFACE_WITH_KNOTS('',1,1,(
    (#373,#374)
    ,(#375,#376
    )),.UNSPECIFIED.,.F.,.F.,.F.,(2,2),(2,2),(31.285890482823,
    226.30191546538),(13.,163.),.PIECEWISE_BEZIER_KNOTS.);
#373 = CARTESIAN_POINT('',(15.051970001665,34.735315388457,
    -116.3633065513));
#374 = CARTESIAN_POINT('',(188.72854694395,34.735315388457,
    -116.3633065513));
#375 = CARTESIAN_POINT('',(15.051970001665,260.51486541342,
    -119.257916167));
#376 = CARTESIAN_POINT('',(188.72854694395,260.51486541342,
    -119.257916167));
#377 = ADVANCED_FACE('',(#378),#384,.F.);
#378 = FACE_BOUND('',#379,.T.);
#379 = EDGE_LOOP('',(#380,#381,#382,#383));
#380 = ORIENTED_EDGE('',*,*,#107,.F.);
#381 = ORIENTED_EDGE('',*,*,#297,.T.);
#382 = ORIENTED_EDGE('',*,*,#368,.T.);
#383 = ORIENTED_EDGE('',*,*,#80,.F.);
#384 = B_SPLINE_SURFACE_WITH_KNOTS('',1,1,(
    (#385,#386)
    ,(#387,#388
    )),.UNSPECIFIED.,.F.,.F.,.F.,(2,2),(2,2),(32.055058042327,
    227.07108302489),(-103.,103.),.PIECEWISE_BEZIER_KNOTS.);
#385 = CARTESIAN_POINT('',(185.83393732824,34.735315388457,
    -119.257916167));
#386 = CARTESIAN_POINT('',(185.83393732824,34.735315388457,
    119.25791616703));
#387 = CARTESIAN_POINT('',(188.72854694395,260.51486541342,
    -119.257916167));
#388 = CARTESIAN_POINT('',(188.72854694395,260.51486541342,
    119.25791616703));
#389 = ADVANCED_FACE('',(#390),#396,.T.);
#390 = FACE_BOUND('',#391,.T.);
#391 = EDGE_LOOP('',(#392,#393,#394,#395));
#392 = ORIENTED_EDGE('',*,*,#93,.T.);
#393 = ORIENTED_EDGE('',*,*,#66,.T.);
#394 = ORIENTED_EDGE('',*,*,#362,.F.);
#395 = ORIENTED_EDGE('',*,*,#283,.F.);
#396 = B_SPLINE_SURFACE_WITH_KNOTS('',1,1,(
    (#397,#398)
    ,(#399,#400
    )),.UNSPECIFIED.,.F.,.F.,.F.,(2,2),(2,2),(29.798833201116,
    224.81485818367),(-103.,103.),.PIECEWISE_BEZIER_KNOTS.);
#397 = CARTESIAN_POINT('',(17.94657961737,34.735315388457,-119.257916167
    ));
#398 = CARTESIAN_POINT('',(17.94657961737,34.735315388457,
    119.25791616703));
#399 = CARTESIAN_POINT('',(15.051970001665,260.51486541342,
    -119.257916167));
#400 = CARTESIAN_POINT('',(15.051970001665,260.51486541342,
    119.25791616703));
#401 = ADVANCED_FACE('',(#402),#408,.T.);
#402 = FACE_BOUND('',#403,.T.);
#403 = EDGE_LOOP('',(#404,#405,#406,#407));
#404 = ORIENTED_EDGE('',*,*,#121,.T.);
#405 = ORIENTED_EDGE('',*,*,#30,.T.);
#406 = ORIENTED_EDGE('',*,*,#346,.F.);
#407 = ORIENTED_EDGE('',*,*,#262,.F.);
#408 = B_SPLINE_SURFACE_WITH_KNOTS('',1,1,(
    (#409,#410)
    ,(#411,#412
    )),.UNSPECIFIED.,.F.,.F.,.F.,(2,2),(2,2),(-224.8148581836,
    -29.79883320111),(-103.,103.),.PIECEWISE_BEZIER_KNOTS.);
#409 = CARTESIAN_POINT('',(-15.05197000166,260.51486541342,
    -119.257916167));
#410 = CARTESIAN_POINT('',(-15.05197000166,260.51486541342,
    119.25791616703));
#411 = CARTESIAN_POINT('',(-17.94657961737,34.735315388457,
    -119.257916167));
#412 = CARTESIAN_POINT('',(-17.94657961737,34.735315388457,
    119.25791616703));
#413 = ( GEOMETRIC_REPRESENTATION_CONTEXT(3) 
GLOBAL_UNCERTAINTY_ASSIGNED_CONTEXT((#417)) GLOBAL_UNIT_ASSIGNED_CONTEXT
((#414,#415,#416)) REPRESENTATION_CONTEXT('Context #1',
  '3D Context with UNIT and UNCERTAINTY') );
#414 = ( LENGTH_UNIT() NAMED_UNIT(*) SI_UNIT(.MILLI.,.METRE.) );
#415 = ( NAMED_UNIT(*) PLANE_ANGLE_UNIT() SI_UNIT($,.RADIAN.) );
#416 = ( NAMED_UNIT(*) SI_UNIT($,.STERADIAN.) SOLID_ANGLE_UNIT() );
#417 = UNCERTAINTY_MEASURE_WITH_UNIT(LENGTH_MEASURE(1.E-07),#414,
  'distance_accuracy_value','confusion accuracy');
#418 = PRODUCT_RELATED_PRODUCT_CATEGORY('part',$,(#7));
ENDSEC;
END-ISO-10303-21;
