ISO-10303-21;
HEADER;
FILE_DESCRIPTION(('FreeCAD Model'),'2;1');
FILE_NAME('Open CASCADE Shape Model','2025-04-29T19:02:17',('FreeCAD'),(
    'FreeCAD'),'Open CASCADE STEP processor 7.6','FreeCAD','Unknown');
FILE_SCHEMA(('AUTOMOTIVE_DESIGN { 1 0 10303 214 1 1 1 1 }'));
ENDSEC;
DATA;
#1 = APPLICATION_PROTOCOL_DEFINITION('international standard',
  'automotive_design',2000,#2);
#2 = APPLICATION_CONTEXT(
  'core data for automotive mechanical design processes');
#3 = SHAPE_DEFINITION_REPRESENTATION(#4,#10);
#4 = PRODUCT_DEFINITION_SHAPE('','',#5);
#5 = PRODUCT_DEFINITION('design','',#6,#9);
#6 = PRODUCT_DEFINITION_FORMATION('','',#7);
#7 = PRODUCT('Open CASCADE STEP translator 7.6 1',
  'Open CASCADE STEP translator 7.6 1','',(#8));
#8 = PRODUCT_CONTEXT('',#2,'mechanical');
#9 = PRODUCT_DEFINITION_CONTEXT('part definition',#2,'design');
#10 = ADVANCED_BREP_SHAPE_REPRESENTATION('',(#11,#15),#161);
#11 = AXIS2_PLACEMENT_3D('',#12,#13,#14);
#12 = CARTESIAN_POINT('',(0.,0.,0.));
#13 = DIRECTION('',(0.,0.,1.));
#14 = DIRECTION('',(1.,0.,-0.));
#15 = MANIFOLD_SOLID_BREP('',#16);
#16 = CLOSED_SHELL('',(#17,#53,#83,#113,#131,#149));
#17 = ADVANCED_FACE('',(#18),#48,.F.);
#18 = FACE_BOUND('',#19,.T.);
#19 = EDGE_LOOP('',(#20,#29,#36,#43));
#20 = ORIENTED_EDGE('',*,*,#21,.T.);
#21 = EDGE_CURVE('',#22,#24,#26,.T.);
#22 = VERTEX_POINT('',#23);
#23 = CARTESIAN_POINT('',(0.,7.209733056223,144.19466112445));
#24 = VERTEX_POINT('',#25);
#25 = CARTESIAN_POINT('',(0.,8.651679667467,144.19466112445));
#26 = B_SPLINE_CURVE_WITH_KNOTS('',1,(#27,#28),.UNSPECIFIED.,.F.,.F.,(2,
    2),(5.,6.),.PIECEWISE_BEZIER_KNOTS.);
#27 = CARTESIAN_POINT('',(0.,7.209733056223,144.19466112445));
#28 = CARTESIAN_POINT('',(0.,8.651679667467,144.19466112445));
#29 = ORIENTED_EDGE('',*,*,#30,.F.);
#30 = EDGE_CURVE('',#31,#24,#33,.T.);
#31 = VERTEX_POINT('',#32);
#32 = CARTESIAN_POINT('',(0.,8.651679667467,0.));
#33 = B_SPLINE_CURVE_WITH_KNOTS('',1,(#34,#35),.UNSPECIFIED.,.F.,.F.,(2,
    2),(-100.,0.),.PIECEWISE_BEZIER_KNOTS.);
#34 = CARTESIAN_POINT('',(0.,8.651679667467,0.));
#35 = CARTESIAN_POINT('',(0.,8.651679667467,144.19466112445));
#36 = ORIENTED_EDGE('',*,*,#37,.F.);
#37 = EDGE_CURVE('',#38,#31,#40,.T.);
#38 = VERTEX_POINT('',#39);
#39 = CARTESIAN_POINT('',(0.,7.209733056223,0.));
#40 = B_SPLINE_CURVE_WITH_KNOTS('',1,(#41,#42),.UNSPECIFIED.,.F.,.F.,(2,
    2),(5.,6.),.PIECEWISE_BEZIER_KNOTS.);
#41 = CARTESIAN_POINT('',(0.,7.209733056223,0.));
#42 = CARTESIAN_POINT('',(0.,8.651679667467,0.));
#43 = ORIENTED_EDGE('',*,*,#44,.T.);
#44 = EDGE_CURVE('',#38,#22,#45,.T.);
#45 = B_SPLINE_CURVE_WITH_KNOTS('',1,(#46,#47),.UNSPECIFIED.,.F.,.F.,(2,
    2),(-100.,0.),.PIECEWISE_BEZIER_KNOTS.);
#46 = CARTESIAN_POINT('',(0.,7.209733056223,0.));
#47 = CARTESIAN_POINT('',(0.,7.209733056223,144.19466112445));
#48 = B_SPLINE_SURFACE_WITH_KNOTS('',1,1,(
    (#49,#50)
    ,(#51,#52
  )),.UNSPECIFIED.,.F.,.F.,.F.,(2,2),(2,2),(-100.,0.),(5.,6.),
  .PIECEWISE_BEZIER_KNOTS.);
#49 = CARTESIAN_POINT('',(0.,7.209733056223,144.19466112445));
#50 = CARTESIAN_POINT('',(0.,8.651679667467,144.19466112445));
#51 = CARTESIAN_POINT('',(0.,7.209733056223,0.));
#52 = CARTESIAN_POINT('',(0.,8.651679667467,0.));
#53 = ADVANCED_FACE('',(#54),#78,.T.);
#54 = FACE_BOUND('',#55,.T.);
#55 = EDGE_LOOP('',(#56,#57,#65,#72));
#56 = ORIENTED_EDGE('',*,*,#21,.F.);
#57 = ORIENTED_EDGE('',*,*,#58,.F.);
#58 = EDGE_CURVE('',#59,#22,#61,.T.);
#59 = VERTEX_POINT('',#60);
#60 = CARTESIAN_POINT('',(5.0980511346,-5.0980511346,144.19466112445));
#61 = ( BOUNDED_CURVE() B_SPLINE_CURVE(2,(#62,#63,#64),.UNSPECIFIED.,.F.
,.F.) B_SPLINE_CURVE_WITH_KNOTS((3,3),(5.497787143782,7.853981633974),
.PIECEWISE_BEZIER_KNOTS.) CURVE() GEOMETRIC_REPRESENTATION_ITEM() 
RATIONAL_B_SPLINE_CURVE((1.,0.382683432365,1.)) REPRESENTATION_ITEM('') 
  );
#62 = CARTESIAN_POINT('',(5.0980511346,-5.0980511346,144.19466112445));
#63 = CARTESIAN_POINT('',(17.405835325422,7.209733056223,144.19466112445
    ));
#64 = CARTESIAN_POINT('',(2.207344127502E-15,7.209733056223,
    144.19466112445));
#65 = ORIENTED_EDGE('',*,*,#66,.F.);
#66 = EDGE_CURVE('',#67,#59,#69,.T.);
#67 = VERTEX_POINT('',#68);
#68 = CARTESIAN_POINT('',(6.11766136152,-6.11766136152,144.19466112445)
  );
#69 = B_SPLINE_CURVE_WITH_KNOTS('',1,(#70,#71),.UNSPECIFIED.,.F.,.F.,(2,
    2),(0.,1.),.PIECEWISE_BEZIER_KNOTS.);
#70 = CARTESIAN_POINT('',(6.11766136152,-6.11766136152,144.19466112445)
  );
#71 = CARTESIAN_POINT('',(5.0980511346,-5.0980511346,144.19466112445));
#72 = ORIENTED_EDGE('',*,*,#73,.T.);
#73 = EDGE_CURVE('',#67,#24,#74,.T.);
#74 = ( BOUNDED_CURVE() B_SPLINE_CURVE(2,(#75,#76,#77),.UNSPECIFIED.,.F.
,.F.) B_SPLINE_CURVE_WITH_KNOTS((3,3),(5.497787143782,7.853981633974),
.PIECEWISE_BEZIER_KNOTS.) CURVE() GEOMETRIC_REPRESENTATION_ITEM() 
RATIONAL_B_SPLINE_CURVE((1.,0.382683432365,1.)) REPRESENTATION_ITEM('') 
  );
#75 = CARTESIAN_POINT('',(6.11766136152,-6.11766136152,144.19466112445)
  );
#76 = CARTESIAN_POINT('',(20.887002390507,8.651679667467,144.19466112445
    ));
#77 = CARTESIAN_POINT('',(2.648812953003E-15,8.651679667467,
    144.19466112445));
#78 = B_SPLINE_SURFACE_WITH_KNOTS('',1,1,(
    (#79,#80)
    ,(#81,#82
    )),.UNSPECIFIED.,.F.,.F.,.F.,(2,2),(2,2),(0.,6.),(-4.242640687119,6.
    ),.PIECEWISE_BEZIER_KNOTS.);
#79 = CARTESIAN_POINT('',(0.,-6.11766136152,144.19466112445));
#80 = CARTESIAN_POINT('',(0.,8.651679667467,144.19466112445));
#81 = CARTESIAN_POINT('',(8.651679667467,-6.11766136152,144.19466112445)
  );
#82 = CARTESIAN_POINT('',(8.651679667467,8.651679667467,144.19466112445)
  );
#83 = ADVANCED_FACE('',(#84),#108,.F.);
#84 = FACE_BOUND('',#85,.T.);
#85 = EDGE_LOOP('',(#86,#94,#95,#103));
#86 = ORIENTED_EDGE('',*,*,#87,.T.);
#87 = EDGE_CURVE('',#88,#38,#90,.T.);
#88 = VERTEX_POINT('',#89);
#89 = CARTESIAN_POINT('',(5.0980511346,-5.0980511346,0.));
#90 = ( BOUNDED_CURVE() B_SPLINE_CURVE(2,(#91,#92,#93),.UNSPECIFIED.,.F.
,.F.) B_SPLINE_CURVE_WITH_KNOTS((3,3),(5.497787143782,7.853981633974),
.PIECEWISE_BEZIER_KNOTS.) CURVE() GEOMETRIC_REPRESENTATION_ITEM() 
RATIONAL_B_SPLINE_CURVE((1.,0.382683432365,1.)) REPRESENTATION_ITEM('') 
  );
#91 = CARTESIAN_POINT('',(5.0980511346,-5.0980511346,0.));
#92 = CARTESIAN_POINT('',(17.405835325422,7.209733056223,0.));
#93 = CARTESIAN_POINT('',(2.207344127502E-15,7.209733056223,0.));
#94 = ORIENTED_EDGE('',*,*,#37,.T.);
#95 = ORIENTED_EDGE('',*,*,#96,.F.);
#96 = EDGE_CURVE('',#97,#31,#99,.T.);
#97 = VERTEX_POINT('',#98);
#98 = CARTESIAN_POINT('',(6.11766136152,-6.11766136152,0.));
#99 = ( BOUNDED_CURVE() B_SPLINE_CURVE(2,(#100,#101,#102),
.UNSPECIFIED.,.F.,.F.) B_SPLINE_CURVE_WITH_KNOTS((3,3),(5.497787143782,
7.853981633974),.PIECEWISE_BEZIER_KNOTS.) CURVE() 
GEOMETRIC_REPRESENTATION_ITEM() RATIONAL_B_SPLINE_CURVE((1.,
0.382683432365,1.)) REPRESENTATION_ITEM('') );
#100 = CARTESIAN_POINT('',(6.11766136152,-6.11766136152,0.));
#101 = CARTESIAN_POINT('',(20.887002390507,8.651679667467,0.));
#102 = CARTESIAN_POINT('',(2.648812953003E-15,8.651679667467,0.));
#103 = ORIENTED_EDGE('',*,*,#104,.T.);
#104 = EDGE_CURVE('',#97,#88,#105,.T.);
#105 = B_SPLINE_CURVE_WITH_KNOTS('',1,(#106,#107),.UNSPECIFIED.,.F.,.F.,
  (2,2),(0.,1.),.PIECEWISE_BEZIER_KNOTS.);
#106 = CARTESIAN_POINT('',(6.11766136152,-6.11766136152,0.));
#107 = CARTESIAN_POINT('',(5.0980511346,-5.0980511346,0.));
#108 = B_SPLINE_SURFACE_WITH_KNOTS('',1,1,(
    (#109,#110)
    ,(#111,#112
    )),.UNSPECIFIED.,.F.,.F.,.F.,(2,2),(2,2),(0.,6.),(-4.242640687119,6.
    ),.PIECEWISE_BEZIER_KNOTS.);
#109 = CARTESIAN_POINT('',(0.,-6.11766136152,0.));
#110 = CARTESIAN_POINT('',(0.,8.651679667467,0.));
#111 = CARTESIAN_POINT('',(8.651679667467,-6.11766136152,0.));
#112 = CARTESIAN_POINT('',(8.651679667467,8.651679667467,0.));
#113 = ADVANCED_FACE('',(#114),#124,.F.);
#114 = FACE_BOUND('',#115,.F.);
#115 = EDGE_LOOP('',(#116,#117,#122,#123));
#116 = ORIENTED_EDGE('',*,*,#58,.F.);
#117 = ORIENTED_EDGE('',*,*,#118,.T.);
#118 = EDGE_CURVE('',#59,#88,#119,.T.);
#119 = B_SPLINE_CURVE_WITH_KNOTS('',1,(#120,#121),.UNSPECIFIED.,.F.,.F.,
  (2,2),(-0.,100.),.PIECEWISE_BEZIER_KNOTS.);
#120 = CARTESIAN_POINT('',(5.0980511346,-5.0980511346,144.19466112445));
#121 = CARTESIAN_POINT('',(5.0980511346,-5.0980511346,0.));
#122 = ORIENTED_EDGE('',*,*,#87,.T.);
#123 = ORIENTED_EDGE('',*,*,#44,.T.);
#124 = ( BOUNDED_SURFACE() B_SPLINE_SURFACE(2,1,(
    (#125,#126)
    ,(#127,#128)
,(#129,#130
    )),.UNSPECIFIED.,.F.,.F.,.F.) B_SPLINE_SURFACE_WITH_KNOTS((3,3),(2,2
    ),(1.570796326795,3.926990816987),(0.,100.),
.PIECEWISE_BEZIER_KNOTS.) GEOMETRIC_REPRESENTATION_ITEM() 
RATIONAL_B_SPLINE_SURFACE((
    (1.,1.)
    ,(0.382683432365,0.382683432365)
,(1.,1.))) REPRESENTATION_ITEM('') SURFACE() );
#125 = CARTESIAN_POINT('',(-4.414688255005E-16,7.209733056223,
    144.19466112445));
#126 = CARTESIAN_POINT('',(-4.414688255005E-16,7.209733056223,0.));
#127 = CARTESIAN_POINT('',(17.405835325422,7.209733056223,
    144.19466112445));
#128 = CARTESIAN_POINT('',(17.405835325422,7.209733056223,0.));
#129 = CARTESIAN_POINT('',(5.0980511346,-5.0980511346,144.19466112445));
#130 = CARTESIAN_POINT('',(5.0980511346,-5.0980511346,0.));
#131 = ADVANCED_FACE('',(#132),#142,.T.);
#132 = FACE_BOUND('',#133,.T.);
#133 = EDGE_LOOP('',(#134,#135,#136,#137));
#134 = ORIENTED_EDGE('',*,*,#96,.T.);
#135 = ORIENTED_EDGE('',*,*,#30,.T.);
#136 = ORIENTED_EDGE('',*,*,#73,.F.);
#137 = ORIENTED_EDGE('',*,*,#138,.T.);
#138 = EDGE_CURVE('',#67,#97,#139,.T.);
#139 = B_SPLINE_CURVE_WITH_KNOTS('',1,(#140,#141),.UNSPECIFIED.,.F.,.F.,
  (2,2),(-0.,100.),.PIECEWISE_BEZIER_KNOTS.);
#140 = CARTESIAN_POINT('',(6.11766136152,-6.11766136152,144.19466112445)
  );
#141 = CARTESIAN_POINT('',(6.11766136152,-6.11766136152,0.));
#142 = ( BOUNDED_SURFACE() B_SPLINE_SURFACE(2,1,(
    (#143,#144)
    ,(#145,#146)
,(#147,#148
    )),.UNSPECIFIED.,.F.,.F.,.F.) B_SPLINE_SURFACE_WITH_KNOTS((3,3),(2,2
    ),(1.570796326795,3.926990816987),(0.,100.),
.PIECEWISE_BEZIER_KNOTS.) GEOMETRIC_REPRESENTATION_ITEM() 
RATIONAL_B_SPLINE_SURFACE((
    (1.,1.)
    ,(0.382683432365,0.382683432365)
,(1.,1.))) REPRESENTATION_ITEM('') SURFACE() );
#143 = CARTESIAN_POINT('',(-5.297625906006E-16,8.651679667467,
    144.19466112445));
#144 = CARTESIAN_POINT('',(-5.297625906006E-16,8.651679667467,0.));
#145 = CARTESIAN_POINT('',(20.887002390507,8.651679667467,
    144.19466112445));
#146 = CARTESIAN_POINT('',(20.887002390507,8.651679667467,0.));
#147 = CARTESIAN_POINT('',(6.11766136152,-6.11766136152,144.19466112445)
  );
#148 = CARTESIAN_POINT('',(6.11766136152,-6.11766136152,0.));
#149 = ADVANCED_FACE('',(#150),#156,.T.);
#150 = FACE_BOUND('',#151,.T.);
#151 = EDGE_LOOP('',(#152,#153,#154,#155));
#152 = ORIENTED_EDGE('',*,*,#104,.F.);
#153 = ORIENTED_EDGE('',*,*,#138,.F.);
#154 = ORIENTED_EDGE('',*,*,#66,.T.);
#155 = ORIENTED_EDGE('',*,*,#118,.T.);
#156 = B_SPLINE_SURFACE_WITH_KNOTS('',1,1,(
    (#157,#158)
    ,(#159,#160
    )),.UNSPECIFIED.,.F.,.F.,.F.,(2,2),(2,2),(-1.,0.),(-100.,0.),
  .PIECEWISE_BEZIER_KNOTS.);
#157 = CARTESIAN_POINT('',(5.0980511346,-5.0980511346,0.));
#158 = CARTESIAN_POINT('',(5.0980511346,-5.0980511346,144.19466112445));
#159 = CARTESIAN_POINT('',(6.11766136152,-6.11766136152,0.));
#160 = CARTESIAN_POINT('',(6.11766136152,-6.11766136152,144.19466112445)
  );
#161 = ( GEOMETRIC_REPRESENTATION_CONTEXT(3) 
GLOBAL_UNCERTAINTY_ASSIGNED_CONTEXT((#165)) GLOBAL_UNIT_ASSIGNED_CONTEXT
((#162,#163,#164)) REPRESENTATION_CONTEXT('Context #1',
  '3D Context with UNIT and UNCERTAINTY') );
#162 = ( LENGTH_UNIT() NAMED_UNIT(*) SI_UNIT(.MILLI.,.METRE.) );
#163 = ( NAMED_UNIT(*) PLANE_ANGLE_UNIT() SI_UNIT($,.RADIAN.) );
#164 = ( NAMED_UNIT(*) SI_UNIT($,.STERADIAN.) SOLID_ANGLE_UNIT() );
#165 = UNCERTAINTY_MEASURE_WITH_UNIT(LENGTH_MEASURE(2.E-07),#162,
  'distance_accuracy_value','confusion accuracy');
#166 = PRODUCT_RELATED_PRODUCT_CATEGORY('part',$,(#7));
ENDSEC;
END-ISO-10303-21;
