ISO-10303-21;
HEADER;
FILE_DESCRIPTION(('FreeCAD Model'),'2;1');
FILE_NAME('Open CASCADE Shape Model','2025-04-29T09:26:57',('FreeCAD'),(
    'FreeCAD'),'Open CASCADE STEP processor 7.6','FreeCAD','Unknown');
FILE_SCHEMA(('AUTOMOTIVE_DESIGN { 1 0 10303 214 1 1 1 1 }'));
ENDSEC;
DATA;
#1 = APPLICATION_PROTOCOL_DEFINITION('international standard',
  'automotive_design',2000,#2);
#2 = APPLICATION_CONTEXT(
  'core data for automotive mechanical design processes');
#3 = SHAPE_DEFINITION_REPRESENTATION(#4,#10);
#4 = PRODUCT_DEFINITION_SHAPE('','',#5);
#5 = PRODUCT_DEFINITION('design','',#6,#9);
#6 = PRODUCT_DEFINITION_FORMATION('','',#7);
#7 = PRODUCT('Open CASCADE STEP translator 7.6 1',
  'Open CASCADE STEP translator 7.6 1','',(#8));
#8 = PRODUCT_CONTEXT('',#2,'mechanical');
#9 = PRODUCT_DEFINITION_CONTEXT('part definition',#2,'design');
#10 = ADVANCED_BREP_SHAPE_REPRESENTATION('',(#11,#15),#244);
#11 = AXIS2_PLACEMENT_3D('',#12,#13,#14);
#12 = CARTESIAN_POINT('',(0.,0.,0.));
#13 = DIRECTION('',(0.,0.,1.));
#14 = DIRECTION('',(1.,0.,-0.));
#15 = MANIFOLD_SOLID_BREP('',#16);
#16 = CLOSED_SHELL('',(#17,#65,#138,#155,#205,#226));
#17 = ADVANCED_FACE('',(#18),#54,.F.);
#18 = FACE_BOUND('',#19,.F.);
#19 = EDGE_LOOP('',(#20,#29,#39,#46));
#20 = ORIENTED_EDGE('',*,*,#21,.T.);
#21 = EDGE_CURVE('',#22,#24,#26,.T.);
#22 = VERTEX_POINT('',#23);
#23 = CARTESIAN_POINT('',(5.368949685886,4.921537212062,0.));
#24 = VERTEX_POINT('',#25);
#25 = CARTESIAN_POINT('',(5.99532714924,-9.395661950301,0.));
#26 = B_SPLINE_CURVE_WITH_KNOTS('',1,(#27,#28),.UNSPECIFIED.,.F.,.F.,(2,
    2),(-16.01530517973,0.),.PIECEWISE_BEZIER_KNOTS.);
#27 = CARTESIAN_POINT('',(5.368949685886,4.921537212062,0.));
#28 = CARTESIAN_POINT('',(5.99532714924,-9.395661950301,0.));
#29 = ORIENTED_EDGE('',*,*,#30,.T.);
#30 = EDGE_CURVE('',#24,#31,#33,.T.);
#31 = VERTEX_POINT('',#32);
#32 = CARTESIAN_POINT('',(-5.99532714924,-9.395661950301,
    7.342158203157E-16));
#33 = ( BOUNDED_CURVE() B_SPLINE_CURVE(2,(#34,#35,#36,#37,#38),
.UNSPECIFIED.,.F.,.F.) B_SPLINE_CURVE_WITH_KNOTS((3,2,3),(3.14159265359,
4.712388980385,6.28318530718),.PIECEWISE_BEZIER_KNOTS.) CURVE() 
GEOMETRIC_REPRESENTATION_ITEM() RATIONAL_B_SPLINE_CURVE((1.,
0.707106781187,1.,0.707106781187,1.)) REPRESENTATION_ITEM('') );
#34 = CARTESIAN_POINT('',(5.99532714924,-9.395661950301,
    7.342158203157E-16));
#35 = CARTESIAN_POINT('',(5.99532714924,-9.395661950301,-5.99532714924)
  );
#36 = CARTESIAN_POINT('',(3.84526736067E-15,-9.395661950301,
    -5.99532714924));
#37 = CARTESIAN_POINT('',(-5.99532714924,-9.395661950301,-5.99532714924)
  );
#38 = CARTESIAN_POINT('',(-5.99532714924,-9.395661950301,
    -1.468431640631E-15));
#39 = ORIENTED_EDGE('',*,*,#40,.F.);
#40 = EDGE_CURVE('',#41,#31,#43,.T.);
#41 = VERTEX_POINT('',#42);
#42 = CARTESIAN_POINT('',(-5.368949685886,4.921537212062,
    6.958612625381E-16));
#43 = B_SPLINE_CURVE_WITH_KNOTS('',1,(#44,#45),.UNSPECIFIED.,.F.,.F.,(2,
    2),(-16.01530517973,0.),.PIECEWISE_BEZIER_KNOTS.);
#44 = CARTESIAN_POINT('',(-5.368949685886,4.921537212062,
    6.575067047604E-16));
#45 = CARTESIAN_POINT('',(-5.99532714924,-9.395661950301,
    7.342158203157E-16));
#46 = ORIENTED_EDGE('',*,*,#47,.F.);
#47 = EDGE_CURVE('',#22,#41,#48,.T.);
#48 = ( BOUNDED_CURVE() B_SPLINE_CURVE(2,(#49,#50,#51,#52,#53),
.UNSPECIFIED.,.F.,.F.) B_SPLINE_CURVE_WITH_KNOTS((3,2,3),(3.14159265359,
4.712388980385,6.28318530718),.PIECEWISE_BEZIER_KNOTS.) CURVE() 
GEOMETRIC_REPRESENTATION_ITEM() RATIONAL_B_SPLINE_CURVE((1.,
0.707106781187,1.,0.707106781187,1.)) REPRESENTATION_ITEM('') );
#49 = CARTESIAN_POINT('',(5.368949685886,4.921537212062,
    6.575067047604E-16));
#50 = CARTESIAN_POINT('',(5.368949685886,4.921537212062,-5.368949685886)
  );
#51 = CARTESIAN_POINT('',(1.93824050027E-15,4.921537212062,
    -5.368949685886));
#52 = CARTESIAN_POINT('',(-5.368949685886,4.921537212062,-5.368949685886
    ));
#53 = CARTESIAN_POINT('',(-5.368949685886,4.921537212062,
    -1.315013409521E-15));
#54 = ( BOUNDED_SURFACE() B_SPLINE_SURFACE(2,1,(
    (#55,#56)
    ,(#57,#58)
    ,(#59,#60)
    ,(#61,#62)
,(#63,#64
    )),.UNSPECIFIED.,.F.,.F.,.F.) B_SPLINE_SURFACE_WITH_KNOTS((3,2,3),(2
    ,2),(3.14159265359,4.712388980385,6.28318530718),(-16.01530517973,0.
),.PIECEWISE_BEZIER_KNOTS.) GEOMETRIC_REPRESENTATION_ITEM() 
RATIONAL_B_SPLINE_SURFACE((
    (1.,1.)
    ,(0.707106781187,0.707106781187)
    ,(1.,1.)
    ,(0.707106781187,0.707106781187)
,(1.,1.))) REPRESENTATION_ITEM('') SURFACE() );
#55 = CARTESIAN_POINT('',(-5.368949685886,4.921537212062,
    6.575067047604E-16));
#56 = CARTESIAN_POINT('',(-5.99532714924,-9.395661950301,
    7.342158203157E-16));
#57 = CARTESIAN_POINT('',(-5.368949685886,4.921537212062,-5.368949685886
    ));
#58 = CARTESIAN_POINT('',(-5.99532714924,-9.395661950301,-5.99532714924)
  );
#59 = CARTESIAN_POINT('',(-3.427961401108E-17,4.921537212062,
    -5.368949685886));
#60 = CARTESIAN_POINT('',(1.642619899723E-15,-9.395661950301,
    -5.99532714924));
#61 = CARTESIAN_POINT('',(5.368949685886,4.921537212062,-5.368949685886)
  );
#62 = CARTESIAN_POINT('',(5.99532714924,-9.395661950301,-5.99532714924)
  );
#63 = CARTESIAN_POINT('',(5.368949685886,4.921537212062,
    -1.315013409521E-15));
#64 = CARTESIAN_POINT('',(5.99532714924,-9.395661950301,
    -1.468431640631E-15));
#65 = ADVANCED_FACE('',(#66),#116,.T.);
#66 = FACE_BOUND('',#67,.T.);
#67 = EDGE_LOOP('',(#68,#80,#88,#96,#109,#110));
#68 = ORIENTED_EDGE('',*,*,#69,.T.);
#69 = EDGE_CURVE('',#70,#72,#74,.T.);
#70 = VERTEX_POINT('',#71);
#71 = CARTESIAN_POINT('',(8.286194974443,-9.395661950301,0.));
#72 = VERTEX_POINT('',#73);
#73 = CARTESIAN_POINT('',(-8.286194974443,-9.395661950301,
    -1.014766215256E-15));
#74 = ( BOUNDED_CURVE() B_SPLINE_CURVE(2,(#75,#76,#77,#78,#79),
.UNSPECIFIED.,.F.,.F.) B_SPLINE_CURVE_WITH_KNOTS((3,2,3),(3.14159265359,
4.712388980385,6.28318530718),.PIECEWISE_BEZIER_KNOTS.) CURVE() 
GEOMETRIC_REPRESENTATION_ITEM() RATIONAL_B_SPLINE_CURVE((1.,
0.707106781187,1.,0.707106781187,1.)) REPRESENTATION_ITEM('') );
#75 = CARTESIAN_POINT('',(8.286194974443,-9.395661950301,
    1.014766215256E-15));
#76 = CARTESIAN_POINT('',(8.286194974443,-9.395661950301,-8.286194974443
    ));
#77 = CARTESIAN_POINT('',(4.266092953081E-15,-9.395661950301,
    -8.286194974443));
#78 = CARTESIAN_POINT('',(-8.286194974443,-9.395661950301,
    -8.286194974443));
#79 = CARTESIAN_POINT('',(-8.286194974443,-9.395661950301,
    -2.029532430512E-15));
#80 = ORIENTED_EDGE('',*,*,#81,.T.);
#81 = EDGE_CURVE('',#72,#82,#84,.T.);
#82 = VERTEX_POINT('',#83);
#83 = CARTESIAN_POINT('',(-8.008766331301E-16,12.527549267068,0.));
#84 = ( BOUNDED_CURVE() B_SPLINE_CURVE(2,(#85,#86,#87),.UNSPECIFIED.,.F.
,.F.) B_SPLINE_CURVE_WITH_KNOTS((3,3),(5.435123228198,7.853981633974),
.PIECEWISE_BEZIER_KNOTS.) CURVE() GEOMETRIC_REPRESENTATION_ITEM() 
RATIONAL_B_SPLINE_CURVE((1.,0.353553390593,1.)) REPRESENTATION_ITEM('') 
  );
#85 = CARTESIAN_POINT('',(-8.286194974443,-9.395661950301,
    -1.014766215256E-15));
#86 = CARTESIAN_POINT('',(-33.14477989777,12.527549267068,
    -4.059064861025E-15));
#87 = CARTESIAN_POINT('',(-3.835455777769E-15,12.527549267068,
    -2.776871907938E-31));
#88 = ORIENTED_EDGE('',*,*,#89,.F.);
#89 = EDGE_CURVE('',#90,#82,#92,.T.);
#90 = VERTEX_POINT('',#91);
#91 = CARTESIAN_POINT('',(12.527549267068,-6.490366499841E-15,0.));
#92 = ( BOUNDED_CURVE() B_SPLINE_CURVE(2,(#93,#94,#95),.UNSPECIFIED.,.F.
,.F.) B_SPLINE_CURVE_WITH_KNOTS((3,3),(8.881784197001E-16,1.570796326795
),.PIECEWISE_BEZIER_KNOTS.) CURVE() GEOMETRIC_REPRESENTATION_ITEM() 
RATIONAL_B_SPLINE_CURVE((1.,0.707106781187,1.)) REPRESENTATION_ITEM('') 
  );
#93 = CARTESIAN_POINT('',(12.527549267068,1.112669891074E-14,0.));
#94 = CARTESIAN_POINT('',(12.527549267068,12.527549267068,0.));
#95 = CARTESIAN_POINT('',(7.670911555538E-16,12.527549267068,0.));
#96 = ORIENTED_EDGE('',*,*,#97,.T.);
#97 = EDGE_CURVE('',#90,#98,#100,.T.);
#98 = VERTEX_POINT('',#99);
#99 = CARTESIAN_POINT('',(7.670911555538E-16,2.838934823395E-31,
    -12.52754926706));
#100 = B_SPLINE_CURVE_WITH_KNOTS('',7,(#101,#102,#103,#104,#105,#106,
    #107,#108),.UNSPECIFIED.,.F.,.F.,(8,8),(0.,1.570796326795),
  .PIECEWISE_BEZIER_KNOTS.);
#101 = CARTESIAN_POINT('',(12.527549267068,1.567967788684E-15,
    -3.17905683164E-15));
#102 = CARTESIAN_POINT('',(12.527549267068,1.567967788684E-15,
    -2.811175481779));
#103 = CARTESIAN_POINT('',(11.791569696407,1.47585142695E-15,
    -5.622337364535));
#104 = CARTESIAN_POINT('',(10.319728086762,1.291633413932E-15,
    -8.202374558622));
#105 = CARTESIAN_POINT('',(8.202374558621,1.02662211295E-15,
    -10.31972808676));
#106 = CARTESIAN_POINT('',(5.622337364535,7.037005959241E-16,
    -11.7915696964));
#107 = CARTESIAN_POINT('',(2.811175481779,3.518511489996E-16,
    -12.52754926706));
#108 = CARTESIAN_POINT('',(1.58952841582E-15,1.764731045539E-31,
    -12.52754926706));
#109 = ORIENTED_EDGE('',*,*,#97,.F.);
#110 = ORIENTED_EDGE('',*,*,#111,.F.);
#111 = EDGE_CURVE('',#70,#90,#112,.T.);
#112 = ( BOUNDED_CURVE() B_SPLINE_CURVE(2,(#113,#114,#115),
.UNSPECIFIED.,.F.,.F.) B_SPLINE_CURVE_WITH_KNOTS((3,3),(5.435123228198,
6.28318530718),.PIECEWISE_BEZIER_KNOTS.) CURVE() 
GEOMETRIC_REPRESENTATION_ITEM() RATIONAL_B_SPLINE_CURVE((1.,
0.911437827766,1.)) REPRESENTATION_ITEM('') );
#113 = CARTESIAN_POINT('',(8.286194974443,-9.395661950301,0.));
#114 = CARTESIAN_POINT('',(12.527549267068,-5.655139056833,0.));
#115 = CARTESIAN_POINT('',(12.527549267068,8.058334288525E-15,0.));
#116 = ( BOUNDED_SURFACE() B_SPLINE_SURFACE(2,2,(
    (#117,#118,#119)
    ,(#120,#121,#122)
    ,(#123,#124,#125)
    ,(#126,#127,#128)
    ,(#129,#130,#131)
    ,(#132,#133,#134)
    ,(#135,#136,#137
)),.UNSPECIFIED.,.T.,.F.,.F.) B_SPLINE_SURFACE_WITH_KNOTS((1,2,2,2,2,1),
  (3,3),(-2.094395102393,0.,2.094395102393,4.188790204786,6.28318530718,
    8.377580409573),(-8.100277186088E-17,1.570796326795),.UNSPECIFIED.) 
GEOMETRIC_REPRESENTATION_ITEM() RATIONAL_B_SPLINE_SURFACE((
    (1.,0.707106781187,1.)
    ,(0.5,0.353553390593,0.5)
    ,(1.,0.707106781187,1.)
    ,(0.5,0.353553390593,0.5)
    ,(1.,0.707106781187,1.)
    ,(0.5,0.353553390593,0.5)
,(1.,0.707106781187,1.))) REPRESENTATION_ITEM('') SURFACE() );
#117 = CARTESIAN_POINT('',(12.527549267068,1.567967788684E-15,
    1.014766215256E-15));
#118 = CARTESIAN_POINT('',(12.527549267068,1.567967788684E-15,
    -12.52754926706));
#119 = CARTESIAN_POINT('',(7.670911555538E-16,9.601033667889E-32,
    -12.52754926706));
#120 = CARTESIAN_POINT('',(12.527549267068,-21.69835182488,
    1.014766215256E-15));
#121 = CARTESIAN_POINT('',(12.527549267068,-21.69835182488,
    -12.52754926706));
#122 = CARTESIAN_POINT('',(7.670911555538E-16,-1.328640855456E-15,
    -12.52754926706));
#123 = CARTESIAN_POINT('',(-6.263774633534,-10.84917591244,
    1.014766215256E-15));
#124 = CARTESIAN_POINT('',(-6.263774633534,-10.84917591244,
    -12.52754926706));
#125 = CARTESIAN_POINT('',(-3.835455777769E-16,-6.643204277279E-16,
    -12.52754926706));
#126 = CARTESIAN_POINT('',(-25.05509853413,-6.204300199583E-15,
    1.014766215256E-15));
#127 = CARTESIAN_POINT('',(-25.05509853413,-6.204300199583E-15,
    -12.52754926706));
#128 = CARTESIAN_POINT('',(-1.534182311108E-15,-3.799038190184E-31,
    -12.52754926706));
#129 = CARTESIAN_POINT('',(-6.263774633534,10.849175912442,
    1.014766215256E-15));
#130 = CARTESIAN_POINT('',(-6.263774633534,10.849175912442,
    -12.52754926706));
#131 = CARTESIAN_POINT('',(-3.835455777769E-16,6.643204277279E-16,
    -12.52754926706));
#132 = CARTESIAN_POINT('',(12.527549267068,21.698351824883,
    1.014766215256E-15));
#133 = CARTESIAN_POINT('',(12.527549267068,21.698351824883,
    -12.52754926706));
#134 = CARTESIAN_POINT('',(7.670911555538E-16,1.328640855456E-15,
    -12.52754926706));
#135 = CARTESIAN_POINT('',(12.527549267068,1.567967788684E-15,
    1.014766215256E-15));
#136 = CARTESIAN_POINT('',(12.527549267068,1.567967788684E-15,
    -12.52754926706));
#137 = CARTESIAN_POINT('',(7.670911555538E-16,9.601033667889E-32,
    -12.52754926706));
#138 = ADVANCED_FACE('',(#139),#150,.T.);
#139 = FACE_BOUND('',#140,.T.);
#140 = EDGE_LOOP('',(#141,#142));
#141 = ORIENTED_EDGE('',*,*,#47,.F.);
#142 = ORIENTED_EDGE('',*,*,#143,.F.);
#143 = EDGE_CURVE('',#41,#22,#144,.T.);
#144 = ( BOUNDED_CURVE() B_SPLINE_CURVE(2,(#145,#146,#147,#148,#149),
.UNSPECIFIED.,.F.,.F.) B_SPLINE_CURVE_WITH_KNOTS((3,2,3),(0.,
1.570796326795,3.14159265359),.PIECEWISE_BEZIER_KNOTS.) CURVE() 
GEOMETRIC_REPRESENTATION_ITEM() RATIONAL_B_SPLINE_CURVE((1.,
0.707106781187,1.,0.707106781187,1.)) REPRESENTATION_ITEM('') );
#145 = CARTESIAN_POINT('',(-5.368949685886,4.921537212062,0.));
#146 = CARTESIAN_POINT('',(-5.368949685886,4.921537212062,5.368949685886
    ));
#147 = CARTESIAN_POINT('',(6.232270907493E-16,4.921537212062,
    5.368949685886));
#148 = CARTESIAN_POINT('',(5.368949685886,4.921537212062,5.368949685886)
  );
#149 = CARTESIAN_POINT('',(5.368949685886,4.921537212062,
    6.575067047604E-16));
#150 = B_SPLINE_SURFACE_WITH_KNOTS('',1,1,(
    (#151,#152)
    ,(#153,#154
    )),.UNSPECIFIED.,.F.,.F.,.F.,(2,2),(2,2),(-6.,6.),(-6.,6.),
  .PIECEWISE_BEZIER_KNOTS.);
#151 = CARTESIAN_POINT('',(-5.368949685886,4.921537212062,
    -5.368949685886));
#152 = CARTESIAN_POINT('',(-5.368949685886,4.921537212062,5.368949685886
    ));
#153 = CARTESIAN_POINT('',(5.368949685886,4.921537212062,-5.368949685886
    ));
#154 = CARTESIAN_POINT('',(5.368949685886,4.921537212062,5.368949685886)
  );
#155 = ADVANCED_FACE('',(#156),#183,.T.);
#156 = FACE_BOUND('',#157,.T.);
#157 = EDGE_LOOP('',(#158,#159,#167,#168,#181,#182));
#158 = ORIENTED_EDGE('',*,*,#81,.F.);
#159 = ORIENTED_EDGE('',*,*,#160,.T.);
#160 = EDGE_CURVE('',#72,#70,#161,.T.);
#161 = ( BOUNDED_CURVE() B_SPLINE_CURVE(2,(#162,#163,#164,#165,#166),
.UNSPECIFIED.,.F.,.F.) B_SPLINE_CURVE_WITH_KNOTS((3,2,3),(0.,
1.570796326795,3.14159265359),.PIECEWISE_BEZIER_KNOTS.) CURVE() 
GEOMETRIC_REPRESENTATION_ITEM() RATIONAL_B_SPLINE_CURVE((1.,
0.707106781187,1.,0.707106781187,1.)) REPRESENTATION_ITEM('') );
#162 = CARTESIAN_POINT('',(-8.286194974443,-9.395661950301,0.));
#163 = CARTESIAN_POINT('',(-8.286194974443,-9.395661950301,
    8.286194974443));
#164 = CARTESIAN_POINT('',(2.236560522569E-15,-9.395661950301,
    8.286194974443));
#165 = CARTESIAN_POINT('',(8.286194974443,-9.395661950301,8.286194974443
    ));
#166 = CARTESIAN_POINT('',(8.286194974443,-9.395661950301,
    1.014766215256E-15));
#167 = ORIENTED_EDGE('',*,*,#111,.T.);
#168 = ORIENTED_EDGE('',*,*,#169,.F.);
#169 = EDGE_CURVE('',#170,#90,#172,.T.);
#170 = VERTEX_POINT('',#171);
#171 = CARTESIAN_POINT('',(7.670911555538E-16,9.601033667889E-32,
    12.527549267068));
#172 = B_SPLINE_CURVE_WITH_KNOTS('',7,(#173,#174,#175,#176,#177,#178,
    #179,#180),.UNSPECIFIED.,.F.,.F.,(8,8),(-1.570796326795,0.),
  .PIECEWISE_BEZIER_KNOTS.);
#173 = CARTESIAN_POINT('',(0.,7.058924182157E-31,12.527549267068));
#174 = CARTESIAN_POINT('',(2.811175481779,1.04039056012E-15,
    12.527549267068));
#175 = CARTESIAN_POINT('',(5.622337364535,2.080776087365E-15,
    11.791569696407));
#176 = CARTESIAN_POINT('',(8.202374558622,3.035624462674E-15,
    10.319728086762));
#177 = CARTESIAN_POINT('',(10.319728086762,3.819237807836E-15,
    8.202374558621));
#178 = CARTESIAN_POINT('',(11.791569696407,4.363953044075E-15,
    5.622337364535));
#179 = CARTESIAN_POINT('',(12.527549267068,4.636332410899E-15,
    2.811175481779));
#180 = CARTESIAN_POINT('',(12.527549267068,4.636332410899E-15,0.));
#181 = ORIENTED_EDGE('',*,*,#169,.T.);
#182 = ORIENTED_EDGE('',*,*,#89,.T.);
#183 = ( BOUNDED_SURFACE() B_SPLINE_SURFACE(2,2,(
    (#184,#185,#186)
    ,(#187,#188,#189)
    ,(#190,#191,#192)
    ,(#193,#194,#195)
    ,(#196,#197,#198)
    ,(#199,#200,#201)
    ,(#202,#203,#204
)),.UNSPECIFIED.,.T.,.F.,.F.) B_SPLINE_SURFACE_WITH_KNOTS((1,2,2,2,2,1),
  (3,3),(-2.094395102393,0.,2.094395102393,4.188790204786,6.28318530718,
    8.377580409573),(-1.570796326795,0.),.UNSPECIFIED.) 
GEOMETRIC_REPRESENTATION_ITEM() RATIONAL_B_SPLINE_SURFACE((
    (1.,0.707106781187,1.)
    ,(0.5,0.353553390593,0.5)
    ,(1.,0.707106781187,1.)
    ,(0.5,0.353553390593,0.5)
    ,(1.,0.707106781187,1.)
    ,(0.5,0.353553390593,0.5)
,(1.,0.707106781187,1.))) REPRESENTATION_ITEM('') SURFACE() );
#184 = CARTESIAN_POINT('',(7.670911555538E-16,9.601033667889E-32,
    12.527549267068));
#185 = CARTESIAN_POINT('',(12.527549267068,1.567967788684E-15,
    12.527549267068));
#186 = CARTESIAN_POINT('',(12.527549267068,1.567967788684E-15,0.));
#187 = CARTESIAN_POINT('',(7.670911555538E-16,-1.328640855456E-15,
    12.527549267068));
#188 = CARTESIAN_POINT('',(12.527549267068,-21.69835182488,
    12.527549267068));
#189 = CARTESIAN_POINT('',(12.527549267068,-21.69835182488,0.));
#190 = CARTESIAN_POINT('',(-3.835455777769E-16,-6.643204277279E-16,
    12.527549267068));
#191 = CARTESIAN_POINT('',(-6.263774633534,-10.84917591244,
    12.527549267068));
#192 = CARTESIAN_POINT('',(-6.263774633534,-10.84917591244,0.));
#193 = CARTESIAN_POINT('',(-1.534182311108E-15,-3.799038190184E-31,
    12.527549267068));
#194 = CARTESIAN_POINT('',(-25.05509853413,-6.204300199583E-15,
    12.527549267068));
#195 = CARTESIAN_POINT('',(-25.05509853413,-6.204300199583E-15,0.));
#196 = CARTESIAN_POINT('',(-3.835455777769E-16,6.643204277279E-16,
    12.527549267068));
#197 = CARTESIAN_POINT('',(-6.263774633534,10.849175912442,
    12.527549267068));
#198 = CARTESIAN_POINT('',(-6.263774633534,10.849175912442,0.));
#199 = CARTESIAN_POINT('',(7.670911555538E-16,1.328640855456E-15,
    12.527549267068));
#200 = CARTESIAN_POINT('',(12.527549267068,21.698351824883,
    12.527549267068));
#201 = CARTESIAN_POINT('',(12.527549267068,21.698351824883,0.));
#202 = CARTESIAN_POINT('',(7.670911555538E-16,9.601033667889E-32,
    12.527549267068));
#203 = CARTESIAN_POINT('',(12.527549267068,1.567967788684E-15,
    12.527549267068));
#204 = CARTESIAN_POINT('',(12.527549267068,1.567967788684E-15,0.));
#205 = ADVANCED_FACE('',(#206,#217),#221,.T.);
#206 = FACE_BOUND('',#207,.T.);
#207 = EDGE_LOOP('',(#208,#209));
#208 = ORIENTED_EDGE('',*,*,#30,.T.);
#209 = ORIENTED_EDGE('',*,*,#210,.T.);
#210 = EDGE_CURVE('',#31,#24,#211,.T.);
#211 = ( BOUNDED_CURVE() B_SPLINE_CURVE(2,(#212,#213,#214,#215,#216),
.UNSPECIFIED.,.F.,.F.) B_SPLINE_CURVE_WITH_KNOTS((3,2,3),(0.,
1.570796326795,3.14159265359),.PIECEWISE_BEZIER_KNOTS.) CURVE() 
GEOMETRIC_REPRESENTATION_ITEM() RATIONAL_B_SPLINE_CURVE((1.,
0.707106781187,1.,0.707106781187,1.)) REPRESENTATION_ITEM('') );
#212 = CARTESIAN_POINT('',(-5.99532714924,-9.395661950301,0.));
#213 = CARTESIAN_POINT('',(-5.99532714924,-9.395661950301,5.99532714924)
  );
#214 = CARTESIAN_POINT('',(2.376835720039E-15,-9.395661950301,
    5.99532714924));
#215 = CARTESIAN_POINT('',(5.99532714924,-9.395661950301,5.99532714924)
  );
#216 = CARTESIAN_POINT('',(5.99532714924,-9.395661950301,
    7.342158203157E-16));
#217 = FACE_BOUND('',#218,.T.);
#218 = EDGE_LOOP('',(#219,#220));
#219 = ORIENTED_EDGE('',*,*,#69,.F.);
#220 = ORIENTED_EDGE('',*,*,#160,.F.);
#221 = B_SPLINE_SURFACE_WITH_KNOTS('',1,1,(
    (#222,#223)
    ,(#224,#225
    )),.UNSPECIFIED.,.F.,.F.,.F.,(2,2),(2,2),(-2.560129588726,
    15.960129588726),(-9.260129588726,9.260129588726),
  .PIECEWISE_BEZIER_KNOTS.);
#222 = CARTESIAN_POINT('',(-8.286194974443,-9.395661950301,
    -8.286194974443));
#223 = CARTESIAN_POINT('',(-8.286194974443,-9.395661950301,
    8.286194974443));
#224 = CARTESIAN_POINT('',(8.286194974443,-9.395661950301,
    -8.286194974443));
#225 = CARTESIAN_POINT('',(8.286194974443,-9.395661950301,8.286194974443
    ));
#226 = ADVANCED_FACE('',(#227),#233,.F.);
#227 = FACE_BOUND('',#228,.F.);
#228 = EDGE_LOOP('',(#229,#230,#231,#232));
#229 = ORIENTED_EDGE('',*,*,#210,.T.);
#230 = ORIENTED_EDGE('',*,*,#21,.F.);
#231 = ORIENTED_EDGE('',*,*,#143,.F.);
#232 = ORIENTED_EDGE('',*,*,#40,.T.);
#233 = ( BOUNDED_SURFACE() B_SPLINE_SURFACE(2,1,(
    (#234,#235)
    ,(#236,#237)
    ,(#238,#239)
    ,(#240,#241)
,(#242,#243
    )),.UNSPECIFIED.,.F.,.F.,.F.) B_SPLINE_SURFACE_WITH_KNOTS((3,2,3),(2
    ,2),(0.,1.570796326795,3.14159265359),(-16.01530517973,0.),
.PIECEWISE_BEZIER_KNOTS.) GEOMETRIC_REPRESENTATION_ITEM() 
RATIONAL_B_SPLINE_SURFACE((
    (1.,1.)
    ,(0.707106781187,0.707106781187)
    ,(1.,1.)
    ,(0.707106781187,0.707106781187)
,(1.,1.))) REPRESENTATION_ITEM('') SURFACE() );
#234 = CARTESIAN_POINT('',(5.368949685886,4.921537212062,0.));
#235 = CARTESIAN_POINT('',(5.99532714924,-9.395661950301,0.));
#236 = CARTESIAN_POINT('',(5.368949685886,4.921537212062,5.368949685886)
  );
#237 = CARTESIAN_POINT('',(5.99532714924,-9.395661950301,5.99532714924)
  );
#238 = CARTESIAN_POINT('',(1.28073379551E-15,4.921537212062,
    5.368949685886));
#239 = CARTESIAN_POINT('',(3.111051540355E-15,-9.395661950301,
    5.99532714924));
#240 = CARTESIAN_POINT('',(-5.368949685886,4.921537212062,5.368949685886
    ));
#241 = CARTESIAN_POINT('',(-5.99532714924,-9.395661950301,5.99532714924)
  );
#242 = CARTESIAN_POINT('',(-5.368949685886,4.921537212062,
    6.575067047604E-16));
#243 = CARTESIAN_POINT('',(-5.99532714924,-9.395661950301,
    7.342158203157E-16));
#244 = ( GEOMETRIC_REPRESENTATION_CONTEXT(3) 
GLOBAL_UNCERTAINTY_ASSIGNED_CONTEXT((#248)) GLOBAL_UNIT_ASSIGNED_CONTEXT
((#245,#246,#247)) REPRESENTATION_CONTEXT('Context #1',
  '3D Context with UNIT and UNCERTAINTY') );
#245 = ( LENGTH_UNIT() NAMED_UNIT(*) SI_UNIT(.MILLI.,.METRE.) );
#246 = ( NAMED_UNIT(*) PLANE_ANGLE_UNIT() SI_UNIT($,.RADIAN.) );
#247 = ( NAMED_UNIT(*) SI_UNIT($,.STERADIAN.) SOLID_ANGLE_UNIT() );
#248 = UNCERTAINTY_MEASURE_WITH_UNIT(LENGTH_MEASURE(2.E-06),#245,
  'distance_accuracy_value','confusion accuracy');
#249 = PRODUCT_RELATED_PRODUCT_CATEGORY('part',$,(#7));
ENDSEC;
END-ISO-10303-21;
