ISO-10303-21;
HEADER;
FILE_DESCRIPTION(('FreeCAD Model'),'2;1');
FILE_NAME('Open CASCADE Shape Model','2025-04-29T04:19:44',('FreeCAD'),(
    'FreeCAD'),'Open CASCADE STEP processor 7.6','FreeCAD','Unknown');
FILE_SCHEMA(('AUTOMOTIVE_DESIGN { 1 0 10303 214 1 1 1 1 }'));
ENDSEC;
DATA;
#1 = APPLICATION_PROTOCOL_DEFINITION('international standard',
  'automotive_design',2000,#2);
#2 = APPLICATION_CONTEXT(
  'core data for automotive mechanical design processes');
#3 = SHAPE_DEFINITION_REPRESENTATION(#4,#10);
#4 = PRODUCT_DEFINITION_SHAPE('','',#5);
#5 = PRODUCT_DEFINITION('design','',#6,#9);
#6 = PRODUCT_DEFINITION_FORMATION('','',#7);
#7 = PRODUCT('Open CASCADE STEP translator 7.6 1',
  'Open CASCADE STEP translator 7.6 1','',(#8));
#8 = PRODUCT_CONTEXT('',#2,'mechanical');
#9 = PRODUCT_DEFINITION_CONTEXT('part definition',#2,'design');
#10 = ADVANCED_BREP_SHAPE_REPRESENTATION('',(#11,#15),#108);
#11 = AXIS2_PLACEMENT_3D('',#12,#13,#14);
#12 = CARTESIAN_POINT('',(0.,0.,0.));
#13 = DIRECTION('',(0.,0.,1.));
#14 = DIRECTION('',(1.,0.,-0.));
#15 = MANIFOLD_SOLID_BREP('',#16);
#16 = CLOSED_SHELL('',(#17));
#17 = ADVANCED_FACE('',(#18),#44,.T.);
#18 = FACE_BOUND('',#19,.T.);
#19 = EDGE_LOOP('',(#20,#32,#42,#43));
#20 = ORIENTED_EDGE('',*,*,#21,.F.);
#21 = EDGE_CURVE('',#22,#22,#24,.T.);
#22 = VERTEX_POINT('',#23);
#23 = CARTESIAN_POINT('',(-23.02701661411,-2.819996219038E-15,
    1.858603482439E-16));
#24 = ( BOUNDED_CURVE() B_SPLINE_CURVE(2,(#25,#26,#27,#28,#29,#30,#31),
.UNSPECIFIED.,.T.,.F.) B_SPLINE_CURVE_WITH_KNOTS((3,2,2,3),(
    3.14159265359,5.235987755983,7.330382858376,9.424777960769),
.PIECEWISE_BEZIER_KNOTS.) CURVE() GEOMETRIC_REPRESENTATION_ITEM() 
RATIONAL_B_SPLINE_CURVE((1.,0.5,1.,0.5,1.,0.5,1.)) REPRESENTATION_ITEM(
  '') );
#25 = CARTESIAN_POINT('',(-23.02701661411,-2.819996219038E-15,
    -1.858603482439E-16));
#26 = CARTESIAN_POINT('',(-23.02701661411,-2.819996219038E-15,
    2.628672744623));
#27 = CARTESIAN_POINT('',(-25.30351398919,-3.098786741404E-15,
    1.314336372311));
#28 = CARTESIAN_POINT('',(-27.58001136426,-3.37757726377E-15,
    3.439355847708E-15));
#29 = CARTESIAN_POINT('',(-25.30351398919,-3.098786741404E-15,
    -1.314336372311));
#30 = CARTESIAN_POINT('',(-23.02701661411,-2.819996219038E-15,
    -2.628672744623));
#31 = CARTESIAN_POINT('',(-23.02701661411,-2.819996219038E-15,
    -3.253495499464E-15));
#32 = ORIENTED_EDGE('',*,*,#33,.T.);
#33 = EDGE_CURVE('',#22,#22,#34,.T.);
#34 = ( BOUNDED_CURVE() B_SPLINE_CURVE(2,(#35,#36,#37,#38,#39,#40,#41),
.UNSPECIFIED.,.T.,.F.) B_SPLINE_CURVE_WITH_KNOTS((3,2,2,3),(
    3.14159265359,5.235987755983,7.330382858376,9.424777960769),
.PIECEWISE_BEZIER_KNOTS.) CURVE() GEOMETRIC_REPRESENTATION_ITEM() 
RATIONAL_B_SPLINE_CURVE((1.,0.5,1.,0.5,1.,0.5,1.)) REPRESENTATION_ITEM(
  '') );
#35 = CARTESIAN_POINT('',(-23.02701661411,-2.819996219038E-15,
    -1.858603482439E-16));
#36 = CARTESIAN_POINT('',(-23.02701661411,39.883962722373,
    -1.858603482439E-16));
#37 = CARTESIAN_POINT('',(11.513508307055,19.941981361186,
    -1.858603482439E-16));
#38 = CARTESIAN_POINT('',(46.054033228222,5.218418332961E-14,
    -1.858603482439E-16));
#39 = CARTESIAN_POINT('',(11.513508307056,-19.94198136118,
    -1.858603482439E-16));
#40 = CARTESIAN_POINT('',(-23.02701661411,-39.88396272237,
    -1.858603482439E-16));
#41 = CARTESIAN_POINT('',(-23.02701661411,-4.936418711057E-14,
    -1.858603482439E-16));
#42 = ORIENTED_EDGE('',*,*,#21,.T.);
#43 = ORIENTED_EDGE('',*,*,#33,.F.);
#44 = ( BOUNDED_SURFACE() B_SPLINE_SURFACE(2,2,(
    (#45,#46,#47,#48,#49,#50,#51)
    ,(#52,#53,#54,#55,#56,#57,#58)
    ,(#59,#60,#61,#62,#63,#64,#65)
    ,(#66,#67,#68,#69,#70,#71,#72)
    ,(#73,#74,#75,#76,#77,#78,#79)
    ,(#80,#81,#82,#83,#84,#85,#86)
    ,(#87,#88,#89,#90,#91,#92,#93)
    ,(#94,#95,#96,#97,#98,#99,#100)
    ,(#101,#102,#103,#104,#105,#106,#107
)),.UNSPECIFIED.,.T.,.T.,.F.) B_SPLINE_SURFACE_WITH_KNOTS((3,2,2,2,3),(3
    ,2,2,3),(3.14159265359,4.188790204786,6.28318530718,8.377580409573,
    9.424777960769),(-3.14159265359,-1.047197551197,1.047197551197,
3.14159265359),.UNSPECIFIED.) GEOMETRIC_REPRESENTATION_ITEM() 
RATIONAL_B_SPLINE_SURFACE((
    (0.75,0.375,0.75,0.375,0.75,0.375,0.75)
    ,(0.75,0.375,0.75,0.375,0.75,0.375,0.75)
    ,(1.,0.5,1.,0.5,1.,0.5,1.)
    ,(0.5,0.25,0.5,0.25,0.5,0.25,0.5)
    ,(1.,0.5,1.,0.5,1.,0.5,1.)
    ,(0.5,0.25,0.5,0.25,0.5,0.25,0.5)
    ,(1.,0.5,1.,0.5,1.,0.5,1.)
    ,(0.75,0.375,0.75,0.375,0.75,0.375,0.75)
,(0.75,0.375,0.75,0.375,0.75,0.375,0.75
))) REPRESENTATION_ITEM('') SURFACE() );
#45 = CARTESIAN_POINT('',(-23.02701661411,1.018113806806E-15,
    -1.162096879122E-15));
#46 = CARTESIAN_POINT('',(-23.02701661411,1.018113806806E-15,
    -2.628672744623));
#47 = CARTESIAN_POINT('',(-25.30351398919,-3.054341420419E-15,
    -1.314336372311));
#48 = CARTESIAN_POINT('',(-27.58001136426,-3.054341420419E-15,
    1.952473061757E-15));
#49 = CARTESIAN_POINT('',(-25.30351398919,-3.054341420419E-15,
    1.314336372311));
#50 = CARTESIAN_POINT('',(-23.02701661411,1.018113806806E-15,
    2.628672744623));
#51 = CARTESIAN_POINT('',(-23.02701661411,1.018113806806E-15,
    5.575810447316E-16));
#52 = CARTESIAN_POINT('',(-23.02701661411,-13.29465424079,
    -1.162096879122E-15));
#53 = CARTESIAN_POINT('',(-23.02701661411,-13.29465424079,
    -2.628672744623));
#54 = CARTESIAN_POINT('',(-25.30351398919,-14.6089906131,-1.314336372311
    ));
#55 = CARTESIAN_POINT('',(-27.58001136426,-15.92332698541,
    1.952473061757E-15));
#56 = CARTESIAN_POINT('',(-25.30351398919,-14.6089906131,1.314336372311)
  );
#57 = CARTESIAN_POINT('',(-23.02701661411,-13.29465424079,2.628672744623
    ));
#58 = CARTESIAN_POINT('',(-23.02701661411,-13.29465424079,
    5.575810447316E-16));
#59 = CARTESIAN_POINT('',(-11.51350830705,-19.94198136118,
    -1.162096879122E-15));
#60 = CARTESIAN_POINT('',(-11.51350830705,-19.94198136118,
    -2.628672744623));
#61 = CARTESIAN_POINT('',(-12.65175699459,-21.91348591965,
    -1.314336372311));
#62 = CARTESIAN_POINT('',(-13.79000568213,-23.88499047812,
    1.952473061757E-15));
#63 = CARTESIAN_POINT('',(-12.65175699459,-21.91348591965,1.314336372311
    ));
#64 = CARTESIAN_POINT('',(-11.51350830705,-19.94198136118,2.628672744623
    ));
#65 = CARTESIAN_POINT('',(-11.51350830705,-19.94198136118,
    5.575810447316E-16));
#66 = CARTESIAN_POINT('',(23.027016614111,-39.88396272237,
    -1.162096879122E-15));
#67 = CARTESIAN_POINT('',(23.027016614111,-39.88396272237,
    -2.628672744623));
#68 = CARTESIAN_POINT('',(25.30351398919,-43.8269718393,-1.314336372311)
  );
#69 = CARTESIAN_POINT('',(27.580011364269,-47.76998095624,
    1.952473061757E-15));
#70 = CARTESIAN_POINT('',(25.30351398919,-43.8269718393,1.314336372311)
  );
#71 = CARTESIAN_POINT('',(23.027016614111,-39.88396272237,2.628672744623
    ));
#72 = CARTESIAN_POINT('',(23.027016614111,-39.88396272237,
    5.575810447316E-16));
#73 = CARTESIAN_POINT('',(23.027016614111,0.,-1.162096879122E-15));
#74 = CARTESIAN_POINT('',(23.027016614111,0.,-2.628672744623));
#75 = CARTESIAN_POINT('',(25.30351398919,0.,-1.314336372311));
#76 = CARTESIAN_POINT('',(27.580011364269,0.,1.952473061757E-15));
#77 = CARTESIAN_POINT('',(25.30351398919,0.,1.314336372311));
#78 = CARTESIAN_POINT('',(23.027016614111,0.,2.628672744623));
#79 = CARTESIAN_POINT('',(23.027016614111,0.,5.575810447316E-16));
#80 = CARTESIAN_POINT('',(23.027016614111,39.883962722373,
    -1.162096879122E-15));
#81 = CARTESIAN_POINT('',(23.027016614111,39.883962722373,
    -2.628672744623));
#82 = CARTESIAN_POINT('',(25.30351398919,43.826971839307,-1.314336372311
    ));
#83 = CARTESIAN_POINT('',(27.580011364269,47.769980956242,
    1.952473061757E-15));
#84 = CARTESIAN_POINT('',(25.30351398919,43.826971839307,1.314336372311)
  );
#85 = CARTESIAN_POINT('',(23.027016614111,39.883962722373,2.628672744623
    ));
#86 = CARTESIAN_POINT('',(23.027016614111,39.883962722373,
    5.575810447316E-16));
#87 = CARTESIAN_POINT('',(-11.51350830705,19.941981361186,
    -1.162096879122E-15));
#88 = CARTESIAN_POINT('',(-11.51350830705,19.941981361186,
    -2.628672744623));
#89 = CARTESIAN_POINT('',(-12.65175699459,21.913485919654,
    -1.314336372311));
#90 = CARTESIAN_POINT('',(-13.79000568213,23.884990478121,
    1.952473061757E-15));
#91 = CARTESIAN_POINT('',(-12.65175699459,21.913485919654,1.314336372311
    ));
#92 = CARTESIAN_POINT('',(-11.51350830705,19.941981361186,2.628672744623
    ));
#93 = CARTESIAN_POINT('',(-11.51350830705,19.941981361186,
    5.575810447316E-16));
#94 = CARTESIAN_POINT('',(-23.02701661411,13.294654240791,
    -1.162096879122E-15));
#95 = CARTESIAN_POINT('',(-23.02701661411,13.294654240791,
    -2.628672744623));
#96 = CARTESIAN_POINT('',(-25.30351398919,14.608990613102,
    -1.314336372311));
#97 = CARTESIAN_POINT('',(-27.58001136426,15.923326985414,
    1.952473061757E-15));
#98 = CARTESIAN_POINT('',(-25.30351398919,14.608990613102,1.314336372311
    ));
#99 = CARTESIAN_POINT('',(-23.02701661411,13.294654240791,2.628672744623
    ));
#100 = CARTESIAN_POINT('',(-23.02701661411,13.294654240791,
    5.575810447316E-16));
#101 = CARTESIAN_POINT('',(-23.02701661411,1.018113806806E-15,
    -1.162096879122E-15));
#102 = CARTESIAN_POINT('',(-23.02701661411,1.018113806806E-15,
    -2.628672744623));
#103 = CARTESIAN_POINT('',(-25.30351398919,-3.054341420419E-15,
    -1.314336372311));
#104 = CARTESIAN_POINT('',(-27.58001136426,-3.054341420419E-15,
    1.952473061757E-15));
#105 = CARTESIAN_POINT('',(-25.30351398919,-3.054341420419E-15,
    1.314336372311));
#106 = CARTESIAN_POINT('',(-23.02701661411,1.018113806806E-15,
    2.628672744623));
#107 = CARTESIAN_POINT('',(-23.02701661411,1.018113806806E-15,
    5.575810447316E-16));
#108 = ( GEOMETRIC_REPRESENTATION_CONTEXT(3) 
GLOBAL_UNCERTAINTY_ASSIGNED_CONTEXT((#112)) GLOBAL_UNIT_ASSIGNED_CONTEXT
((#109,#110,#111)) REPRESENTATION_CONTEXT('Context #1',
  '3D Context with UNIT and UNCERTAINTY') );
#109 = ( LENGTH_UNIT() NAMED_UNIT(*) SI_UNIT(.MILLI.,.METRE.) );
#110 = ( NAMED_UNIT(*) PLANE_ANGLE_UNIT() SI_UNIT($,.RADIAN.) );
#111 = ( NAMED_UNIT(*) SI_UNIT($,.STERADIAN.) SOLID_ANGLE_UNIT() );
#112 = UNCERTAINTY_MEASURE_WITH_UNIT(LENGTH_MEASURE(1.E-07),#109,
  'distance_accuracy_value','confusion accuracy');
#113 = PRODUCT_RELATED_PRODUCT_CATEGORY('part',$,(#7));
ENDSEC;
END-ISO-10303-21;
