ISO-10303-21;
HEADER;
FILE_DESCRIPTION(('FreeCAD Model'),'2;1');
FILE_NAME('Open CASCADE Shape Model','2025-04-28T06:49:14',('FreeCAD'),(
    'FreeCAD'),'Open CASCADE STEP processor 7.6','FreeCAD','Unknown');
FILE_SCHEMA(('AUTOMOTIVE_DESIGN { 1 0 10303 214 1 1 1 1 }'));
ENDSEC;
DATA;
#1 = APPLICATION_PROTOCOL_DEFINITION('international standard',
  'automotive_design',2000,#2);
#2 = APPLICATION_CONTEXT(
  'core data for automotive mechanical design processes');
#3 = SHAPE_DEFINITION_REPRESENTATION(#4,#10);
#4 = PRODUCT_DEFINITION_SHAPE('','',#5);
#5 = PRODUCT_DEFINITION('design','',#6,#9);
#6 = PRODUCT_DEFINITION_FORMATION('','',#7);
#7 = PRODUCT('Open CASCADE STEP translator 7.6 1',
  'Open CASCADE STEP translator 7.6 1','',(#8));
#8 = PRODUCT_CONTEXT('',#2,'mechanical');
#9 = PRODUCT_DEFINITION_CONTEXT('part definition',#2,'design');
#10 = ADVANCED_BREP_SHAPE_REPRESENTATION('',(#11,#15),#311);
#11 = AXIS2_PLACEMENT_3D('',#12,#13,#14);
#12 = CARTESIAN_POINT('',(0.,0.,0.));
#13 = DIRECTION('',(0.,0.,1.));
#14 = DIRECTION('',(1.,0.,-0.));
#15 = MANIFOLD_SOLID_BREP('',#16);
#16 = CLOSED_SHELL('',(#17,#53,#117,#146,#175,#191,#203,#232,#254,#277,
    #293));
#17 = ADVANCED_FACE('',(#18),#48,.T.);
#18 = FACE_BOUND('',#19,.T.);
#19 = EDGE_LOOP('',(#20,#29,#36,#43));
#20 = ORIENTED_EDGE('',*,*,#21,.T.);
#21 = EDGE_CURVE('',#22,#24,#26,.T.);
#22 = VERTEX_POINT('',#23);
#23 = CARTESIAN_POINT('',(125.02364519241,62.779910412139,
    10.897231736442));
#24 = VERTEX_POINT('',#25);
#25 = CARTESIAN_POINT('',(125.02364519241,61.930648325764,
    11.633531178093));
#26 = B_SPLINE_CURVE_WITH_KNOTS('',1,(#27,#28),.UNSPECIFIED.,.F.,.F.,(2,
    2),(-1.526557039312,-0.763278519656),.PIECEWISE_BEZIER_KNOTS.);
#27 = CARTESIAN_POINT('',(125.02364519241,62.779910412139,
    10.897231736442));
#28 = CARTESIAN_POINT('',(125.02364519241,61.930648325764,
    11.633531178093));
#29 = ORIENTED_EDGE('',*,*,#30,.T.);
#30 = EDGE_CURVE('',#24,#31,#33,.T.);
#31 = VERTEX_POINT('',#32);
#32 = CARTESIAN_POINT('',(125.02364519241,-73.71143939218,
    11.633531178093));
#33 = B_SPLINE_CURVE_WITH_KNOTS('',1,(#34,#35),.UNSPECIFIED.,.F.,.F.,(2,
    2),(-42.0553410898,50.055341089801),.PIECEWISE_BEZIER_KNOTS.);
#34 = CARTESIAN_POINT('',(125.02364519241,61.930648325764,
    11.633531178093));
#35 = CARTESIAN_POINT('',(125.02364519241,-73.71143939218,
    11.633531178093));
#36 = ORIENTED_EDGE('',*,*,#37,.T.);
#37 = EDGE_CURVE('',#31,#38,#40,.T.);
#38 = VERTEX_POINT('',#39);
#39 = CARTESIAN_POINT('',(125.02364519241,-74.56070147856,
    10.897231736442));
#40 = B_SPLINE_CURVE_WITH_KNOTS('',1,(#41,#42),.UNSPECIFIED.,.F.,.F.,(2,
    2),(0.763278519656,1.526557039311),.PIECEWISE_BEZIER_KNOTS.);
#41 = CARTESIAN_POINT('',(125.02364519241,-73.71143939218,
    11.633531178093));
#42 = CARTESIAN_POINT('',(125.02364519241,-74.56070147856,
    10.897231736442));
#43 = ORIENTED_EDGE('',*,*,#44,.T.);
#44 = EDGE_CURVE('',#38,#22,#45,.T.);
#45 = B_SPLINE_CURVE_WITH_KNOTS('',1,(#46,#47),.UNSPECIFIED.,.F.,.F.,(2,
    2),(-93.26410161513,0.),.PIECEWISE_BEZIER_KNOTS.);
#46 = CARTESIAN_POINT('',(125.02364519241,-74.56070147856,
    10.897231736442));
#47 = CARTESIAN_POINT('',(125.02364519241,62.779910412139,
    10.897231736442));
#48 = B_SPLINE_SURFACE_WITH_KNOTS('',1,1,(
    (#49,#50)
    ,(#51,#52
    )),.UNSPECIFIED.,.F.,.F.,.F.,(2,2),(2,2),(-7.9,-7.4),(
    -50.63205080756,42.632050807569),.PIECEWISE_BEZIER_KNOTS.);
#49 = CARTESIAN_POINT('',(125.02364519241,-74.56070147856,
    11.633531178093));
#50 = CARTESIAN_POINT('',(125.02364519241,62.779910412139,
    11.633531178093));
#51 = CARTESIAN_POINT('',(125.02364519241,-74.56070147856,
    10.897231736442));
#52 = CARTESIAN_POINT('',(125.02364519241,62.779910412139,
    10.897231736442));
#53 = ADVANCED_FACE('',(#54),#112,.T.);
#54 = FACE_BOUND('',#55,.T.);
#55 = EDGE_LOOP('',(#56,#65,#72,#79,#86,#93,#100,#107));
#56 = ORIENTED_EDGE('',*,*,#57,.F.);
#57 = EDGE_CURVE('',#58,#60,#62,.T.);
#58 = VERTEX_POINT('',#59);
#59 = CARTESIAN_POINT('',(124.91291706731,58.136188472784,
    12.369830619745));
#60 = VERTEX_POINT('',#61);
#61 = CARTESIAN_POINT('',(119.1332496592,58.136188472784,12.369830619745
    ));
#62 = B_SPLINE_CURVE_WITH_KNOTS('',1,(#63,#64),.UNSPECIFIED.,.F.,.F.,(2,
    2),(7.51923190728E-02,4.),.PIECEWISE_BEZIER_KNOTS.);
#63 = CARTESIAN_POINT('',(124.91291706731,58.136188472784,
    12.369830619745));
#64 = CARTESIAN_POINT('',(119.1332496592,58.136188472784,12.369830619745
    ));
#65 = ORIENTED_EDGE('',*,*,#66,.T.);
#66 = EDGE_CURVE('',#58,#67,#69,.T.);
#67 = VERTEX_POINT('',#68);
#68 = CARTESIAN_POINT('',(124.91291706731,61.08138623939,12.369830619745
    ));
#69 = B_SPLINE_CURVE_WITH_KNOTS('',1,(#70,#71),.UNSPECIFIED.,.F.,.F.,(2,
    2),(0.,2.),.PIECEWISE_BEZIER_KNOTS.);
#70 = CARTESIAN_POINT('',(124.91291706731,58.136188472784,
    12.369830619745));
#71 = CARTESIAN_POINT('',(124.91291706731,61.08138623939,12.369830619745
    ));
#72 = ORIENTED_EDGE('',*,*,#73,.F.);
#73 = EDGE_CURVE('',#74,#67,#76,.T.);
#74 = VERTEX_POINT('',#75);
#75 = CARTESIAN_POINT('',(-113.5373739026,61.08138623939,12.369830619745
    ));
#76 = B_SPLINE_CURVE_WITH_KNOTS('',1,(#77,#78),.UNSPECIFIED.,.F.,.F.,(2,
    2),(1.,162.92480768092),.PIECEWISE_BEZIER_KNOTS.);
#77 = CARTESIAN_POINT('',(-113.5373739026,61.08138623939,12.369830619745
    ));
#78 = CARTESIAN_POINT('',(124.91291706731,61.08138623939,12.369830619745
    ));
#79 = ORIENTED_EDGE('',*,*,#80,.T.);
#80 = EDGE_CURVE('',#74,#81,#83,.T.);
#81 = VERTEX_POINT('',#82);
#82 = CARTESIAN_POINT('',(-113.5373739026,-72.86217730581,
    12.369830619745));
#83 = B_SPLINE_CURVE_WITH_KNOTS('',1,(#84,#85),.UNSPECIFIED.,.F.,.F.,(2,
    2),(-90.95726274406,1.016352455446E-31),.PIECEWISE_BEZIER_KNOTS.);
#84 = CARTESIAN_POINT('',(-113.5373739026,61.08138623939,12.369830619745
    ));
#85 = CARTESIAN_POINT('',(-113.5373739026,-72.86217730581,
    12.369830619745));
#86 = ORIENTED_EDGE('',*,*,#87,.T.);
#87 = EDGE_CURVE('',#81,#88,#90,.T.);
#88 = VERTEX_POINT('',#89);
#89 = CARTESIAN_POINT('',(124.91291706731,-72.86217730581,
    12.369830619745));
#90 = B_SPLINE_CURVE_WITH_KNOTS('',1,(#91,#92),.UNSPECIFIED.,.F.,.F.,(2,
    2),(1.,162.92480768092),.PIECEWISE_BEZIER_KNOTS.);
#91 = CARTESIAN_POINT('',(-113.5373739026,-72.86217730581,
    12.369830619745));
#92 = CARTESIAN_POINT('',(124.91291706731,-72.86217730581,
    12.369830619745));
#93 = ORIENTED_EDGE('',*,*,#94,.T.);
#94 = EDGE_CURVE('',#88,#95,#97,.T.);
#95 = VERTEX_POINT('',#96);
#96 = CARTESIAN_POINT('',(124.91291706731,-69.9169795392,12.369830619745
    ));
#97 = B_SPLINE_CURVE_WITH_KNOTS('',1,(#98,#99),.UNSPECIFIED.,.F.,.F.,(2,
    2),(0.,2.),.PIECEWISE_BEZIER_KNOTS.);
#98 = CARTESIAN_POINT('',(124.91291706731,-72.86217730581,
    12.369830619745));
#99 = CARTESIAN_POINT('',(124.91291706731,-69.9169795392,12.369830619745
    ));
#100 = ORIENTED_EDGE('',*,*,#101,.F.);
#101 = EDGE_CURVE('',#102,#95,#104,.T.);
#102 = VERTEX_POINT('',#103);
#103 = CARTESIAN_POINT('',(119.1332496592,-69.9169795392,12.369830619745
    ));
#104 = B_SPLINE_CURVE_WITH_KNOTS('',1,(#105,#106),.UNSPECIFIED.,.F.,.F.,
  (2,2),(-4.,-7.51923190728E-02),.PIECEWISE_BEZIER_KNOTS.);
#105 = CARTESIAN_POINT('',(119.1332496592,-69.9169795392,12.369830619745
    ));
#106 = CARTESIAN_POINT('',(124.91291706731,-69.9169795392,
    12.369830619745));
#107 = ORIENTED_EDGE('',*,*,#108,.F.);
#108 = EDGE_CURVE('',#60,#102,#109,.T.);
#109 = B_SPLINE_CURVE_WITH_KNOTS('',1,(#110,#111),.UNSPECIFIED.,.F.,.F.,
  (2,2),(0.,86.957262744067),.PIECEWISE_BEZIER_KNOTS.);
#110 = CARTESIAN_POINT('',(119.1332496592,58.136188472784,
    12.369830619745));
#111 = CARTESIAN_POINT('',(119.1332496592,-69.9169795392,12.369830619745
    ));
#112 = B_SPLINE_SURFACE_WITH_KNOTS('',1,1,(
    (#113,#114)
    ,(#115,#116
    )),.UNSPECIFIED.,.F.,.F.,.F.,(2,2),(2,2),(-90.95726274406,
    1.016352455446E-31),(1.,162.92480768092),.PIECEWISE_BEZIER_KNOTS.);
#113 = CARTESIAN_POINT('',(-113.5373739026,61.08138623939,
    12.369830619745));
#114 = CARTESIAN_POINT('',(124.91291706731,61.08138623939,
    12.369830619745));
#115 = CARTESIAN_POINT('',(-113.5373739026,-72.86217730581,
    12.369830619745));
#116 = CARTESIAN_POINT('',(124.91291706731,-72.86217730581,
    12.369830619745));
#117 = ADVANCED_FACE('',(#118),#141,.T.);
#118 = FACE_BOUND('',#119,.T.);
#119 = EDGE_LOOP('',(#120,#121,#128,#129,#136));
#120 = ORIENTED_EDGE('',*,*,#73,.T.);
#121 = ORIENTED_EDGE('',*,*,#122,.T.);
#122 = EDGE_CURVE('',#67,#24,#123,.T.);
#123 = ( BOUNDED_CURVE() B_SPLINE_CURVE(3,(#124,#125,#126,#127),
.UNSPECIFIED.,.F.,.F.) B_SPLINE_CURVE_WITH_KNOTS((4,4),(4.4138567792,
4.712388980385),.PIECEWISE_BEZIER_KNOTS.) CURVE() 
GEOMETRIC_REPRESENTATION_ITEM() RATIONAL_B_SPLINE_CURVE((1.,
0.992586989469,0.992586989469,1.)) REPRESENTATION_ITEM('') );
#124 = CARTESIAN_POINT('',(124.91291706731,61.08138623939,
    12.369830619745));
#125 = CARTESIAN_POINT('',(124.98646016438,61.357038233937,
    12.130843841774));
#126 = CARTESIAN_POINT('',(125.02364519241,61.642239798262,
    11.883577708104));
#127 = CARTESIAN_POINT('',(125.02364519241,61.930648325764,
    11.633531178093));
#128 = ORIENTED_EDGE('',*,*,#21,.F.);
#129 = ORIENTED_EDGE('',*,*,#130,.F.);
#130 = EDGE_CURVE('',#131,#22,#133,.T.);
#131 = VERTEX_POINT('',#132);
#132 = CARTESIAN_POINT('',(-115.0099727859,62.779910412139,
    10.897231736442));
#133 = B_SPLINE_CURVE_WITH_KNOTS('',1,(#134,#135),.UNSPECIFIED.,.F.,.F.,
  (2,2),(0.,163.),.PIECEWISE_BEZIER_KNOTS.);
#134 = CARTESIAN_POINT('',(-115.0099727859,62.779910412139,
    10.897231736442));
#135 = CARTESIAN_POINT('',(125.02364519241,62.779910412139,
    10.897231736442));
#136 = ORIENTED_EDGE('',*,*,#137,.T.);
#137 = EDGE_CURVE('',#131,#74,#138,.T.);
#138 = B_SPLINE_CURVE_WITH_KNOTS('',1,(#139,#140),.UNSPECIFIED.,.F.,.F.,
  (2,2),(-1.276966230983,0.547965656587),.PIECEWISE_BEZIER_KNOTS.);
#139 = CARTESIAN_POINT('',(-115.0099727859,62.779910412139,
    10.897231736442));
#140 = CARTESIAN_POINT('',(-113.5373739026,61.08138623939,
    12.369830619745));
#141 = B_SPLINE_SURFACE_WITH_KNOTS('',1,1,(
    (#142,#143)
    ,(#144,#145
    )),.UNSPECIFIED.,.F.,.F.,.F.,(2,2),(2,2),(-1.526557039312,
    3.441691376338E-15),(-2.531308496145E-14,163.),
  .PIECEWISE_BEZIER_KNOTS.);
#142 = CARTESIAN_POINT('',(-115.0099727859,62.779910412139,
    10.897231736442));
#143 = CARTESIAN_POINT('',(125.02364519241,62.779910412139,
    10.897231736442));
#144 = CARTESIAN_POINT('',(-115.0099727859,61.08138623939,
    12.369830619745));
#145 = CARTESIAN_POINT('',(125.02364519241,61.08138623939,
    12.369830619745));
#146 = ADVANCED_FACE('',(#147),#170,.T.);
#147 = FACE_BOUND('',#148,.T.);
#148 = EDGE_LOOP('',(#149,#150,#157,#158,#165));
#149 = ORIENTED_EDGE('',*,*,#37,.F.);
#150 = ORIENTED_EDGE('',*,*,#151,.T.);
#151 = EDGE_CURVE('',#31,#88,#152,.T.);
#152 = ( BOUNDED_CURVE() B_SPLINE_CURVE(3,(#153,#154,#155,#156),
.UNSPECIFIED.,.F.,.F.) B_SPLINE_CURVE_WITH_KNOTS((4,4),(4.712388980385,
5.01092118157),.PIECEWISE_BEZIER_KNOTS.) CURVE() 
GEOMETRIC_REPRESENTATION_ITEM() RATIONAL_B_SPLINE_CURVE((1.,
0.992586989469,0.992586989469,1.)) REPRESENTATION_ITEM('') );
#153 = CARTESIAN_POINT('',(125.02364519241,-73.71143939218,
    11.633531178093));
#154 = CARTESIAN_POINT('',(125.02364519241,-73.42303086468,
    11.883577708104));
#155 = CARTESIAN_POINT('',(124.98646016438,-73.13782930036,
    12.130843841774));
#156 = CARTESIAN_POINT('',(124.91291706731,-72.86217730581,
    12.369830619745));
#157 = ORIENTED_EDGE('',*,*,#87,.F.);
#158 = ORIENTED_EDGE('',*,*,#159,.T.);
#159 = EDGE_CURVE('',#81,#160,#162,.T.);
#160 = VERTEX_POINT('',#161);
#161 = CARTESIAN_POINT('',(-115.0099727859,-74.56070147856,
    10.897231736442));
#162 = B_SPLINE_CURVE_WITH_KNOTS('',1,(#163,#164),.UNSPECIFIED.,.F.,.F.,
  (2,2),(-0.547965656588,1.276966230983),.PIECEWISE_BEZIER_KNOTS.);
#163 = CARTESIAN_POINT('',(-113.5373739026,-72.86217730581,
    12.369830619745));
#164 = CARTESIAN_POINT('',(-115.0099727859,-74.56070147856,
    10.897231736442));
#165 = ORIENTED_EDGE('',*,*,#166,.T.);
#166 = EDGE_CURVE('',#160,#38,#167,.T.);
#167 = B_SPLINE_CURVE_WITH_KNOTS('',1,(#168,#169),.UNSPECIFIED.,.F.,.F.,
  (2,2),(0.,163.),.PIECEWISE_BEZIER_KNOTS.);
#168 = CARTESIAN_POINT('',(-115.0099727859,-74.56070147856,
    10.897231736442));
#169 = CARTESIAN_POINT('',(125.02364519241,-74.56070147856,
    10.897231736442));
#170 = B_SPLINE_SURFACE_WITH_KNOTS('',1,1,(
    (#171,#172)
    ,(#173,#174
    )),.UNSPECIFIED.,.F.,.F.,.F.,(2,2),(2,2),(0.,1.526557039311),(
    -1.798561299893E-14,163.),.PIECEWISE_BEZIER_KNOTS.);
#171 = CARTESIAN_POINT('',(-115.0099727859,-72.86217730581,
    12.369830619745));
#172 = CARTESIAN_POINT('',(125.02364519241,-72.86217730581,
    12.369830619745));
#173 = CARTESIAN_POINT('',(-115.0099727859,-74.56070147856,
    10.897231736442));
#174 = CARTESIAN_POINT('',(125.02364519241,-74.56070147856,
    10.897231736442));
#175 = ADVANCED_FACE('',(#176),#186,.T.);
#176 = FACE_BOUND('',#177,.T.);
#177 = EDGE_LOOP('',(#178,#179,#180,#185));
#178 = ORIENTED_EDGE('',*,*,#44,.F.);
#179 = ORIENTED_EDGE('',*,*,#166,.F.);
#180 = ORIENTED_EDGE('',*,*,#181,.T.);
#181 = EDGE_CURVE('',#160,#131,#182,.T.);
#182 = B_SPLINE_CURVE_WITH_KNOTS('',1,(#183,#184),.UNSPECIFIED.,.F.,.F.,
  (2,2),(-93.26410161513,0.),.PIECEWISE_BEZIER_KNOTS.);
#183 = CARTESIAN_POINT('',(-115.0099727859,-74.56070147856,
    10.897231736442));
#184 = CARTESIAN_POINT('',(-115.0099727859,62.779910412139,
    10.897231736442));
#185 = ORIENTED_EDGE('',*,*,#130,.T.);
#186 = B_SPLINE_SURFACE_WITH_KNOTS('',1,1,(
    (#187,#188)
    ,(#189,#190
    )),.UNSPECIFIED.,.F.,.F.,.F.,(2,2),(2,2),(-163.,0.),(-93.26410161513
    ,0.),.PIECEWISE_BEZIER_KNOTS.);
#187 = CARTESIAN_POINT('',(125.02364519241,-74.56070147856,
    10.897231736442));
#188 = CARTESIAN_POINT('',(125.02364519241,62.779910412139,
    10.897231736442));
#189 = CARTESIAN_POINT('',(-115.0099727859,-74.56070147856,
    10.897231736442));
#190 = CARTESIAN_POINT('',(-115.0099727859,62.779910412139,
    10.897231736442));
#191 = ADVANCED_FACE('',(#192),#198,.T.);
#192 = FACE_BOUND('',#193,.T.);
#193 = EDGE_LOOP('',(#194,#195,#196,#197));
#194 = ORIENTED_EDGE('',*,*,#137,.F.);
#195 = ORIENTED_EDGE('',*,*,#181,.F.);
#196 = ORIENTED_EDGE('',*,*,#159,.F.);
#197 = ORIENTED_EDGE('',*,*,#80,.F.);
#198 = B_SPLINE_SURFACE_WITH_KNOTS('',1,1,(
    (#199,#200)
    ,(#201,#202
    )),.UNSPECIFIED.,.F.,.F.,.F.,(2,2),(2,2),(-1.153419435536,
    92.110682179602),(-5.605674111305E-31,1.414213562373),
  .PIECEWISE_BEZIER_KNOTS.);
#199 = CARTESIAN_POINT('',(-113.5373739026,-74.56070147856,
    12.369830619745));
#200 = CARTESIAN_POINT('',(-115.0099727859,-74.56070147856,
    10.897231736442));
#201 = CARTESIAN_POINT('',(-113.5373739026,62.779910412139,
    12.369830619745));
#202 = CARTESIAN_POINT('',(-115.0099727859,62.779910412139,
    10.897231736442));
#203 = ADVANCED_FACE('',(#204),#227,.F.);
#204 = FACE_BOUND('',#205,.T.);
#205 = EDGE_LOOP('',(#206,#215,#221,#222));
#206 = ORIENTED_EDGE('',*,*,#207,.F.);
#207 = EDGE_CURVE('',#208,#210,#212,.T.);
#208 = VERTEX_POINT('',#209);
#209 = CARTESIAN_POINT('',(122.5202270908,58.136188472784,
    14.136949279708));
#210 = VERTEX_POINT('',#211);
#211 = CARTESIAN_POINT('',(119.1332496592,58.136188472784,
    14.136949279708));
#212 = B_SPLINE_CURVE_WITH_KNOTS('',1,(#213,#214),.UNSPECIFIED.,.F.,.F.,
  (2,2),(1.7,4.),.PIECEWISE_BEZIER_KNOTS.);
#213 = CARTESIAN_POINT('',(122.5202270908,58.136188472784,
    14.136949279708));
#214 = CARTESIAN_POINT('',(119.1332496592,58.136188472784,
    14.136949279708));
#215 = ORIENTED_EDGE('',*,*,#216,.T.);
#216 = EDGE_CURVE('',#208,#58,#217,.T.);
#217 = ( BOUNDED_CURVE() B_SPLINE_CURVE(2,(#218,#219,#220),
.UNSPECIFIED.,.F.,.F.) B_SPLINE_CURVE_WITH_KNOTS((3,3),(3.14159265359,
4.4138567792),.PIECEWISE_BEZIER_KNOTS.) CURVE() 
GEOMETRIC_REPRESENTATION_ITEM() RATIONAL_B_SPLINE_CURVE((1.,
0.80439966654,1.)) REPRESENTATION_ITEM('') );
#218 = CARTESIAN_POINT('',(122.5202270908,58.136188472784,
    14.136949279708));
#219 = CARTESIAN_POINT('',(124.36912389083,58.136188472784,
    14.136949279708));
#220 = CARTESIAN_POINT('',(124.91291706731,58.136188472784,
    12.369830619745));
#221 = ORIENTED_EDGE('',*,*,#57,.T.);
#222 = ORIENTED_EDGE('',*,*,#223,.F.);
#223 = EDGE_CURVE('',#210,#60,#224,.T.);
#224 = B_SPLINE_CURVE_WITH_KNOTS('',1,(#225,#226),.UNSPECIFIED.,.F.,.F.,
  (2,2),(-0.,1.2),.PIECEWISE_BEZIER_KNOTS.);
#225 = CARTESIAN_POINT('',(119.1332496592,58.136188472784,
    14.136949279708));
#226 = CARTESIAN_POINT('',(119.1332496592,58.136188472784,
    12.369830619745));
#227 = B_SPLINE_SURFACE_WITH_KNOTS('',1,1,(
    (#228,#229)
    ,(#230,#231)),.UNSPECIFIED.,.F.,.F.,.F.,(2,2),(2,2),(0.,1.2),(-4.,
    -7.51923190728E-02),.PIECEWISE_BEZIER_KNOTS.);
#228 = CARTESIAN_POINT('',(119.1332496592,58.136188472784,
    14.136949279708));
#229 = CARTESIAN_POINT('',(124.91291706731,58.136188472784,
    14.136949279708));
#230 = CARTESIAN_POINT('',(119.1332496592,58.136188472784,
    12.369830619745));
#231 = CARTESIAN_POINT('',(124.91291706731,58.136188472784,
    12.369830619745));
#232 = ADVANCED_FACE('',(#233),#249,.F.);
#233 = FACE_BOUND('',#234,.T.);
#234 = EDGE_LOOP('',(#235,#236,#243,#248));
#235 = ORIENTED_EDGE('',*,*,#108,.T.);
#236 = ORIENTED_EDGE('',*,*,#237,.F.);
#237 = EDGE_CURVE('',#238,#102,#240,.T.);
#238 = VERTEX_POINT('',#239);
#239 = CARTESIAN_POINT('',(119.1332496592,-69.9169795392,14.136949279708
    ));
#240 = B_SPLINE_CURVE_WITH_KNOTS('',1,(#241,#242),.UNSPECIFIED.,.F.,.F.,
  (2,2),(-0.,1.2),.PIECEWISE_BEZIER_KNOTS.);
#241 = CARTESIAN_POINT('',(119.1332496592,-69.9169795392,14.136949279708
    ));
#242 = CARTESIAN_POINT('',(119.1332496592,-69.9169795392,12.369830619745
    ));
#243 = ORIENTED_EDGE('',*,*,#244,.F.);
#244 = EDGE_CURVE('',#210,#238,#245,.T.);
#245 = B_SPLINE_CURVE_WITH_KNOTS('',1,(#246,#247),.UNSPECIFIED.,.F.,.F.,
  (2,2),(0.,86.957262744067),.PIECEWISE_BEZIER_KNOTS.);
#246 = CARTESIAN_POINT('',(119.1332496592,58.136188472784,
    14.136949279708));
#247 = CARTESIAN_POINT('',(119.1332496592,-69.9169795392,14.136949279708
    ));
#248 = ORIENTED_EDGE('',*,*,#223,.T.);
#249 = B_SPLINE_SURFACE_WITH_KNOTS('',1,1,(
    (#250,#251)
    ,(#252,#253
    )),.UNSPECIFIED.,.F.,.F.,.F.,(2,2),(2,2),(-0.,1.2),(-86.95726274406,
    0.),.PIECEWISE_BEZIER_KNOTS.);
#250 = CARTESIAN_POINT('',(119.1332496592,-69.9169795392,14.136949279708
    ));
#251 = CARTESIAN_POINT('',(119.1332496592,58.136188472784,
    14.136949279708));
#252 = CARTESIAN_POINT('',(119.1332496592,-69.9169795392,12.369830619745
    ));
#253 = CARTESIAN_POINT('',(119.1332496592,58.136188472784,
    12.369830619745));
#254 = ADVANCED_FACE('',(#255),#272,.F.);
#255 = FACE_BOUND('',#256,.T.);
#256 = EDGE_LOOP('',(#257,#258,#266,#271));
#257 = ORIENTED_EDGE('',*,*,#101,.T.);
#258 = ORIENTED_EDGE('',*,*,#259,.T.);
#259 = EDGE_CURVE('',#95,#260,#262,.T.);
#260 = VERTEX_POINT('',#261);
#261 = CARTESIAN_POINT('',(122.5202270908,-69.9169795392,14.136949279708
    ));
#262 = ( BOUNDED_CURVE() B_SPLINE_CURVE(2,(#263,#264,#265),
.UNSPECIFIED.,.F.,.F.) B_SPLINE_CURVE_WITH_KNOTS((3,3),(5.01092118157,
6.28318530718),.PIECEWISE_BEZIER_KNOTS.) CURVE() 
GEOMETRIC_REPRESENTATION_ITEM() RATIONAL_B_SPLINE_CURVE((1.,
0.80439966654,1.)) REPRESENTATION_ITEM('') );
#263 = CARTESIAN_POINT('',(124.91291706731,-69.9169795392,
    12.369830619745));
#264 = CARTESIAN_POINT('',(124.36912389083,-69.9169795392,
    14.136949279708));
#265 = CARTESIAN_POINT('',(122.5202270908,-69.9169795392,14.136949279708
    ));
#266 = ORIENTED_EDGE('',*,*,#267,.F.);
#267 = EDGE_CURVE('',#238,#260,#268,.T.);
#268 = B_SPLINE_CURVE_WITH_KNOTS('',1,(#269,#270),.UNSPECIFIED.,.F.,.F.,
  (2,2),(-4.,-1.7),.PIECEWISE_BEZIER_KNOTS.);
#269 = CARTESIAN_POINT('',(119.1332496592,-69.9169795392,14.136949279708
    ));
#270 = CARTESIAN_POINT('',(122.5202270908,-69.9169795392,14.136949279708
    ));
#271 = ORIENTED_EDGE('',*,*,#237,.T.);
#272 = B_SPLINE_SURFACE_WITH_KNOTS('',1,1,(
    (#273,#274)
    ,(#275,#276)),.UNSPECIFIED.,.F.,.F.,.F.,(2,2),(2,2),(-1.2,0.),(-4.,
    -7.51923190728E-02),.PIECEWISE_BEZIER_KNOTS.);
#273 = CARTESIAN_POINT('',(119.1332496592,-69.9169795392,12.369830619745
    ));
#274 = CARTESIAN_POINT('',(124.91291706731,-69.9169795392,
    12.369830619745));
#275 = CARTESIAN_POINT('',(119.1332496592,-69.9169795392,14.136949279708
    ));
#276 = CARTESIAN_POINT('',(124.91291706731,-69.9169795392,
    14.136949279708));
#277 = ADVANCED_FACE('',(#278),#288,.T.);
#278 = FACE_BOUND('',#279,.T.);
#279 = EDGE_LOOP('',(#280,#281,#286,#287));
#280 = ORIENTED_EDGE('',*,*,#267,.T.);
#281 = ORIENTED_EDGE('',*,*,#282,.T.);
#282 = EDGE_CURVE('',#260,#208,#283,.T.);
#283 = B_SPLINE_CURVE_WITH_KNOTS('',1,(#284,#285),.UNSPECIFIED.,.F.,.F.,
  (2,2),(-47.47863137203,39.478631372033),.PIECEWISE_BEZIER_KNOTS.);
#284 = CARTESIAN_POINT('',(122.5202270908,-69.9169795392,14.136949279708
    ));
#285 = CARTESIAN_POINT('',(122.5202270908,58.136188472784,
    14.136949279708));
#286 = ORIENTED_EDGE('',*,*,#207,.T.);
#287 = ORIENTED_EDGE('',*,*,#244,.T.);
#288 = B_SPLINE_SURFACE_WITH_KNOTS('',1,1,(
    (#289,#290)
    ,(#291,#292
    )),.UNSPECIFIED.,.F.,.F.,.F.,(2,2),(2,2),(80.9,83.2),(
    -47.47863137203,39.478631372033),.PIECEWISE_BEZIER_KNOTS.);
#289 = CARTESIAN_POINT('',(119.1332496592,-69.9169795392,14.136949279708
    ));
#290 = CARTESIAN_POINT('',(119.1332496592,58.136188472784,
    14.136949279708));
#291 = CARTESIAN_POINT('',(122.5202270908,-69.9169795392,14.136949279708
    ));
#292 = CARTESIAN_POINT('',(122.5202270908,58.136188472784,
    14.136949279708));
#293 = ADVANCED_FACE('',(#294),#304,.T.);
#294 = FACE_BOUND('',#295,.T.);
#295 = EDGE_LOOP('',(#296,#297,#298,#299,#300,#301,#302,#303));
#296 = ORIENTED_EDGE('',*,*,#151,.F.);
#297 = ORIENTED_EDGE('',*,*,#30,.F.);
#298 = ORIENTED_EDGE('',*,*,#122,.F.);
#299 = ORIENTED_EDGE('',*,*,#66,.F.);
#300 = ORIENTED_EDGE('',*,*,#216,.F.);
#301 = ORIENTED_EDGE('',*,*,#282,.F.);
#302 = ORIENTED_EDGE('',*,*,#259,.F.);
#303 = ORIENTED_EDGE('',*,*,#94,.F.);
#304 = ( BOUNDED_SURFACE() B_SPLINE_SURFACE(2,1,(
    (#305,#306)
    ,(#307,#308)
,(#309,#310
    )),.UNSPECIFIED.,.F.,.F.,.F.) B_SPLINE_SURFACE_WITH_KNOTS((3,3),(2,2
    ),(0.,1.570796326795),(-50.0553410898,42.055341089801),
.PIECEWISE_BEZIER_KNOTS.) GEOMETRIC_REPRESENTATION_ITEM() 
RATIONAL_B_SPLINE_SURFACE((
    (1.,1.)
    ,(0.707106781187,0.707106781187)
,(1.,1.))) REPRESENTATION_ITEM('') SURFACE() );
#305 = CARTESIAN_POINT('',(122.5202270908,-73.71143939218,
    14.136949279708));
#306 = CARTESIAN_POINT('',(122.5202270908,61.930648325764,
    14.136949279708));
#307 = CARTESIAN_POINT('',(125.02364519241,-73.71143939218,
    14.136949279708));
#308 = CARTESIAN_POINT('',(125.02364519241,61.930648325764,
    14.136949279708));
#309 = CARTESIAN_POINT('',(125.02364519241,-73.71143939218,
    11.633531178093));
#310 = CARTESIAN_POINT('',(125.02364519241,61.930648325764,
    11.633531178093));
#311 = ( GEOMETRIC_REPRESENTATION_CONTEXT(3) 
GLOBAL_UNCERTAINTY_ASSIGNED_CONTEXT((#315)) GLOBAL_UNIT_ASSIGNED_CONTEXT
((#312,#313,#314)) REPRESENTATION_CONTEXT('Context #1',
  '3D Context with UNIT and UNCERTAINTY') );
#312 = ( LENGTH_UNIT() NAMED_UNIT(*) SI_UNIT(.MILLI.,.METRE.) );
#313 = ( NAMED_UNIT(*) PLANE_ANGLE_UNIT() SI_UNIT($,.RADIAN.) );
#314 = ( NAMED_UNIT(*) SI_UNIT($,.STERADIAN.) SOLID_ANGLE_UNIT() );
#315 = UNCERTAINTY_MEASURE_WITH_UNIT(LENGTH_MEASURE(2.E-07),#312,
  'distance_accuracy_value','confusion accuracy');
#316 = PRODUCT_RELATED_PRODUCT_CATEGORY('part',$,(#7));
ENDSEC;
END-ISO-10303-21;
