ISO-10303-21;
HEADER;
FILE_DESCRIPTION(('FreeCAD Model'),'2;1');
FILE_NAME('Open CASCADE Shape Model','2025-04-27T16:36:32',('FreeCAD'),(
    'FreeCAD'),'Open CASCADE STEP processor 7.6','FreeCAD','Unknown');
FILE_SCHEMA(('AUTOMOTIVE_DESIGN { 1 0 10303 214 1 1 1 1 }'));
ENDSEC;
DATA;
#1 = APPLICATION_PROTOCOL_DEFINITION('international standard',
  'automotive_design',2000,#2);
#2 = APPLICATION_CONTEXT(
  'core data for automotive mechanical design processes');
#3 = SHAPE_DEFINITION_REPRESENTATION(#4,#10);
#4 = PRODUCT_DEFINITION_SHAPE('','',#5);
#5 = PRODUCT_DEFINITION('design','',#6,#9);
#6 = PRODUCT_DEFINITION_FORMATION('','',#7);
#7 = PRODUCT('Open CASCADE STEP translator 7.6 1',
  'Open CASCADE STEP translator 7.6 1','',(#8));
#8 = PRODUCT_CONTEXT('',#2,'mechanical');
#9 = PRODUCT_DEFINITION_CONTEXT('part definition',#2,'design');
#10 = ADVANCED_BREP_SHAPE_REPRESENTATION('',(#11,#15),#145);
#11 = AXIS2_PLACEMENT_3D('',#12,#13,#14);
#12 = CARTESIAN_POINT('',(0.,0.,0.));
#13 = DIRECTION('',(0.,0.,1.));
#14 = DIRECTION('',(1.,0.,-0.));
#15 = MANIFOLD_SOLID_BREP('',#16);
#16 = CLOSED_SHELL('',(#17,#85,#127,#136));
#17 = ADVANCED_FACE('',(#18),#57,.F.);
#18 = FACE_BOUND('',#19,.F.);
#19 = EDGE_LOOP('',(#20,#30,#38,#46,#47));
#20 = ORIENTED_EDGE('',*,*,#21,.T.);
#21 = EDGE_CURVE('',#22,#24,#26,.T.);
#22 = VERTEX_POINT('',#23);
#23 = CARTESIAN_POINT('',(-8.074829829931E-18,3.956159360668,
    -6.593598934446E-02));
#24 = VERTEX_POINT('',#25);
#25 = CARTESIAN_POINT('',(-4.037414914966E-17,3.69241540329,
    -0.329679946722));
#26 = ( BOUNDED_CURVE() B_SPLINE_CURVE(2,(#27,#28,#29),.UNSPECIFIED.,.F.
,.F.) B_SPLINE_CURVE_WITH_KNOTS((3,3),(4.712388980385,6.28318530718),
.PIECEWISE_BEZIER_KNOTS.) CURVE() GEOMETRIC_REPRESENTATION_ITEM() 
RATIONAL_B_SPLINE_CURVE((1.,0.707106781187,1.)) REPRESENTATION_ITEM('') 
  );
#27 = CARTESIAN_POINT('',(-8.074829829931E-18,3.956159360668,
    -6.593598934446E-02));
#28 = CARTESIAN_POINT('',(-4.037414914966E-17,3.956159360668,
    -0.329679946722));
#29 = CARTESIAN_POINT('',(-4.037414914966E-17,3.69241540329,
    -0.329679946722));
#30 = ORIENTED_EDGE('',*,*,#31,.F.);
#31 = EDGE_CURVE('',#32,#24,#34,.T.);
#32 = VERTEX_POINT('',#33);
#33 = CARTESIAN_POINT('',(0.329679946722,3.69241540329,
    -4.037414914966E-17));
#34 = ( BOUNDED_CURVE() B_SPLINE_CURVE(2,(#35,#36,#37),.UNSPECIFIED.,.F.
,.F.) B_SPLINE_CURVE_WITH_KNOTS((3,3),(0.,1.570796326795),
.PIECEWISE_BEZIER_KNOTS.) CURVE() GEOMETRIC_REPRESENTATION_ITEM() 
RATIONAL_B_SPLINE_CURVE((1.,0.707106781187,1.)) REPRESENTATION_ITEM('') 
  );
#35 = CARTESIAN_POINT('',(0.329679946722,3.69241540329,
    4.037414914966E-17));
#36 = CARTESIAN_POINT('',(0.329679946722,3.69241540329,-0.329679946722)
  );
#37 = CARTESIAN_POINT('',(-1.264242979718E-17,3.69241540329,
    -0.329679946722));
#38 = ORIENTED_EDGE('',*,*,#39,.F.);
#39 = EDGE_CURVE('',#24,#32,#40,.T.);
#40 = ( BOUNDED_CURVE() B_SPLINE_CURVE(2,(#41,#42,#43,#44,#45),
.UNSPECIFIED.,.F.,.F.) B_SPLINE_CURVE_WITH_KNOTS((3,2,3),(1.570796326795
,3.926990816987,6.28318530718),.PIECEWISE_BEZIER_KNOTS.) CURVE() 
GEOMETRIC_REPRESENTATION_ITEM() RATIONAL_B_SPLINE_CURVE((1.,
0.382683432365,1.,0.382683432365,1.)) REPRESENTATION_ITEM('') );
#41 = CARTESIAN_POINT('',(-1.264242979718E-17,3.69241540329,
    -0.329679946722));
#42 = CARTESIAN_POINT('',(-0.795917798619,3.69241540329,-0.329679946722)
  );
#43 = CARTESIAN_POINT('',(-0.233118925949,3.69241540329,0.233118925949)
  );
#44 = CARTESIAN_POINT('',(0.329679946722,3.69241540329,0.795917798619));
#45 = CARTESIAN_POINT('',(0.329679946722,3.69241540329,1.21122447449E-16
    ));
#46 = ORIENTED_EDGE('',*,*,#21,.F.);
#47 = ORIENTED_EDGE('',*,*,#48,.F.);
#48 = EDGE_CURVE('',#22,#22,#49,.T.);
#49 = ( BOUNDED_CURVE() B_SPLINE_CURVE(2,(#50,#51,#52,#53,#54,#55,#56),
.UNSPECIFIED.,.T.,.F.) B_SPLINE_CURVE_WITH_KNOTS((3,2,2,3),(
    4.712388980385,6.806784082778,8.901179185171,10.995574287564),
.PIECEWISE_BEZIER_KNOTS.) CURVE() GEOMETRIC_REPRESENTATION_ITEM() 
RATIONAL_B_SPLINE_CURVE((1.,0.5,1.,0.5,1.,0.5,1.)) REPRESENTATION_ITEM(
  '') );
#50 = CARTESIAN_POINT('',(-4.037414914966E-18,3.956159360668,
    -6.593598934446E-02));
#51 = CARTESIAN_POINT('',(0.114204483592,3.956159360668,
    -6.593598934446E-02));
#52 = CARTESIAN_POINT('',(5.710224179597E-02,3.956159360668,
    3.296799467223E-02));
#53 = CARTESIAN_POINT('',(1.413503351245E-16,3.956159360668,
    0.131871978689));
#54 = CARTESIAN_POINT('',(-5.710224179597E-02,3.956159360668,
    3.296799467223E-02));
#55 = CARTESIAN_POINT('',(-0.114204483592,3.956159360668,
    -6.593598934446E-02));
#56 = CARTESIAN_POINT('',(-1.373129202095E-16,3.956159360668,
    -6.593598934446E-02));
#57 = ( BOUNDED_SURFACE() B_SPLINE_SURFACE(2,2,(
    (#58,#59,#60,#61,#62,#63,#64,#65,#66)
    ,(#67,#68,#69,#70,#71,#72,#73,#74,#75)
    ,(#76,#77,#78,#79,#80,#81,#82,#83,#84
)),.UNSPECIFIED.,.F.,.T.,.F.) B_SPLINE_SURFACE_WITH_KNOTS((3,3),(1,2,2,2
    ,2,2,1),(0.,1.570796326795),(-4.712388980385,-3.14159265359,
    -1.570796326795,0.,1.570796326795,3.14159265359,4.712388980385),
.UNSPECIFIED.) GEOMETRIC_REPRESENTATION_ITEM() RATIONAL_B_SPLINE_SURFACE
((
    (1.,0.707106781187,1.,0.707106781187,1.,0.707106781187,1.
      ,0.707106781187,1.)
    ,(0.707106781187,0.5,0.707106781187,0.5,0.707106781187,0.5
      ,0.707106781187,0.5,0.707106781187)
    ,(1.,0.707106781187,1.,0.707106781187,1.,0.707106781187,1.
,0.707106781187,1.))) REPRESENTATION_ITEM('') SURFACE() );
#58 = CARTESIAN_POINT('',(0.,3.69241540329,-0.329679946722));
#59 = CARTESIAN_POINT('',(-0.329679946722,3.69241540329,-0.329679946722)
  );
#60 = CARTESIAN_POINT('',(-0.329679946722,3.69241540329,0.));
#61 = CARTESIAN_POINT('',(-0.329679946722,3.69241540329,0.329679946722)
  );
#62 = CARTESIAN_POINT('',(0.,3.69241540329,0.329679946722));
#63 = CARTESIAN_POINT('',(0.329679946722,3.69241540329,0.329679946722));
#64 = CARTESIAN_POINT('',(0.329679946722,3.69241540329,0.));
#65 = CARTESIAN_POINT('',(0.329679946722,3.69241540329,-0.329679946722)
  );
#66 = CARTESIAN_POINT('',(0.,3.69241540329,-0.329679946722));
#67 = CARTESIAN_POINT('',(0.,3.956159360668,-0.329679946722));
#68 = CARTESIAN_POINT('',(-0.329679946722,3.956159360668,-0.329679946722
    ));
#69 = CARTESIAN_POINT('',(-0.329679946722,3.956159360668,0.));
#70 = CARTESIAN_POINT('',(-0.329679946722,3.956159360668,0.329679946722)
  );
#71 = CARTESIAN_POINT('',(0.,3.956159360668,0.329679946722));
#72 = CARTESIAN_POINT('',(0.329679946722,3.956159360668,0.329679946722)
  );
#73 = CARTESIAN_POINT('',(0.329679946722,3.956159360668,0.));
#74 = CARTESIAN_POINT('',(0.329679946722,3.956159360668,-0.329679946722)
  );
#75 = CARTESIAN_POINT('',(0.,3.956159360668,-0.329679946722));
#76 = CARTESIAN_POINT('',(0.,3.956159360668,-6.593598934446E-02));
#77 = CARTESIAN_POINT('',(-6.593598934446E-02,3.956159360668,
    -6.593598934446E-02));
#78 = CARTESIAN_POINT('',(-6.593598934446E-02,3.956159360668,0.));
#79 = CARTESIAN_POINT('',(-6.593598934446E-02,3.956159360668,
    6.593598934446E-02));
#80 = CARTESIAN_POINT('',(0.,3.956159360668,6.593598934446E-02));
#81 = CARTESIAN_POINT('',(6.593598934446E-02,3.956159360668,
    6.593598934446E-02));
#82 = CARTESIAN_POINT('',(6.593598934446E-02,3.956159360668,0.));
#83 = CARTESIAN_POINT('',(6.593598934446E-02,3.956159360668,
    -6.593598934446E-02));
#84 = CARTESIAN_POINT('',(0.,3.956159360668,-6.593598934446E-02));
#85 = ADVANCED_FACE('',(#86),#108,.T.);
#86 = FACE_BOUND('',#87,.T.);
#87 = EDGE_LOOP('',(#88,#89,#90,#97,#107));
#88 = ORIENTED_EDGE('',*,*,#39,.F.);
#89 = ORIENTED_EDGE('',*,*,#31,.F.);
#90 = ORIENTED_EDGE('',*,*,#91,.T.);
#91 = EDGE_CURVE('',#32,#92,#94,.T.);
#92 = VERTEX_POINT('',#93);
#93 = CARTESIAN_POINT('',(0.329679946722,0.,-4.037414914966E-17));
#94 = B_SPLINE_CURVE_WITH_KNOTS('',1,(#95,#96),.UNSPECIFIED.,.F.,.F.,(2,
    2),(-2.8,0.),.PIECEWISE_BEZIER_KNOTS.);
#95 = CARTESIAN_POINT('',(0.329679946722,3.69241540329,
    -4.037414914966E-17));
#96 = CARTESIAN_POINT('',(0.329679946722,0.,-4.037414914966E-17));
#97 = ORIENTED_EDGE('',*,*,#98,.T.);
#98 = EDGE_CURVE('',#92,#92,#99,.T.);
#99 = ( BOUNDED_CURVE() B_SPLINE_CURVE(2,(#100,#101,#102,#103,#104,#105,
#106),.UNSPECIFIED.,.T.,.F.) B_SPLINE_CURVE_WITH_KNOTS((3,2,2,3),(
    3.14159265359,5.235987755983,7.330382858376,9.424777960769),
.PIECEWISE_BEZIER_KNOTS.) CURVE() GEOMETRIC_REPRESENTATION_ITEM() 
RATIONAL_B_SPLINE_CURVE((1.,0.5,1.,0.5,1.,0.5,1.)) REPRESENTATION_ITEM(
  '') );
#100 = CARTESIAN_POINT('',(0.329679946722,0.,4.037414914966E-17));
#101 = CARTESIAN_POINT('',(0.329679946722,0.,-0.57102241796));
#102 = CARTESIAN_POINT('',(-0.164839973361,0.,-0.28551120898));
#103 = CARTESIAN_POINT('',(-0.659359893445,0.,-7.471258247719E-16));
#104 = CARTESIAN_POINT('',(-0.164839973361,0.,0.28551120898));
#105 = CARTESIAN_POINT('',(0.329679946722,0.,0.57102241796));
#106 = CARTESIAN_POINT('',(0.329679946722,0.,7.067516756223E-16));
#107 = ORIENTED_EDGE('',*,*,#91,.F.);
#108 = ( BOUNDED_SURFACE() B_SPLINE_SURFACE(2,1,(
    (#109,#110)
    ,(#111,#112)
    ,(#113,#114)
    ,(#115,#116)
    ,(#117,#118)
    ,(#119,#120)
    ,(#121,#122)
    ,(#123,#124)
,(#125,#126
    )),.UNSPECIFIED.,.T.,.F.,.F.) B_SPLINE_SURFACE_WITH_KNOTS((3,2,2,2,3
    ),(2,2),(3.14159265359,4.188790204786,6.28318530718,8.377580409573,
    9.424777960769),(0.,2.8),.UNSPECIFIED.) 
GEOMETRIC_REPRESENTATION_ITEM() RATIONAL_B_SPLINE_SURFACE((
    (0.75,0.75)
    ,(0.75,0.75)
    ,(1.,1.)
    ,(0.5,0.5)
    ,(1.,1.)
    ,(0.5,0.5)
    ,(1.,1.)
    ,(0.75,0.75)
,(0.75,0.75))) REPRESENTATION_ITEM('') SURFACE() );
#109 = CARTESIAN_POINT('',(0.329679946722,0.,-3.660182676083E-17));
#110 = CARTESIAN_POINT('',(0.329679946722,3.69241540329,
    -3.660182676083E-17));
#111 = CARTESIAN_POINT('',(0.329679946722,0.,-0.190340805987));
#112 = CARTESIAN_POINT('',(0.329679946722,3.69241540329,-0.190340805987)
  );
#113 = CARTESIAN_POINT('',(0.164839973361,0.,-0.28551120898));
#114 = CARTESIAN_POINT('',(0.164839973361,3.69241540329,-0.28551120898)
  );
#115 = CARTESIAN_POINT('',(-0.329679946722,0.,-0.57102241796));
#116 = CARTESIAN_POINT('',(-0.329679946722,3.69241540329,-0.57102241796)
  );
#117 = CARTESIAN_POINT('',(-0.329679946722,0.,0.));
#118 = CARTESIAN_POINT('',(-0.329679946722,3.69241540329,0.));
#119 = CARTESIAN_POINT('',(-0.329679946722,0.,0.57102241796));
#120 = CARTESIAN_POINT('',(-0.329679946722,3.69241540329,0.57102241796)
  );
#121 = CARTESIAN_POINT('',(0.164839973361,0.,0.28551120898));
#122 = CARTESIAN_POINT('',(0.164839973361,3.69241540329,0.28551120898));
#123 = CARTESIAN_POINT('',(0.329679946722,0.,0.190340805987));
#124 = CARTESIAN_POINT('',(0.329679946722,3.69241540329,0.190340805987)
  );
#125 = CARTESIAN_POINT('',(0.329679946722,0.,-3.660182676083E-17));
#126 = CARTESIAN_POINT('',(0.329679946722,3.69241540329,
    -3.660182676083E-17));
#127 = ADVANCED_FACE('',(#128),#131,.T.);
#128 = FACE_BOUND('',#129,.T.);
#129 = EDGE_LOOP('',(#130));
#130 = ORIENTED_EDGE('',*,*,#48,.F.);
#131 = B_SPLINE_SURFACE_WITH_KNOTS('',1,1,(
    (#132,#133)
    ,(#134,#135
  )),.UNSPECIFIED.,.F.,.F.,.F.,(2,2),(2,2),(-5.E-02,5.E-02),(-5.E-02,
    5.E-02),.PIECEWISE_BEZIER_KNOTS.);
#132 = CARTESIAN_POINT('',(-6.593598934446E-02,3.956159360668,
    -6.593598934446E-02));
#133 = CARTESIAN_POINT('',(6.593598934446E-02,3.956159360668,
    -6.593598934446E-02));
#134 = CARTESIAN_POINT('',(-6.593598934446E-02,3.956159360668,
    6.593598934446E-02));
#135 = CARTESIAN_POINT('',(6.593598934446E-02,3.956159360668,
    6.593598934446E-02));
#136 = ADVANCED_FACE('',(#137),#140,.F.);
#137 = FACE_BOUND('',#138,.T.);
#138 = EDGE_LOOP('',(#139));
#139 = ORIENTED_EDGE('',*,*,#98,.F.);
#140 = B_SPLINE_SURFACE_WITH_KNOTS('',1,1,(
    (#141,#142)
    ,(#143,#144
    )),.UNSPECIFIED.,.F.,.F.,.F.,(2,2),(2,2),(-0.25,0.25),(-0.25,0.25),
  .PIECEWISE_BEZIER_KNOTS.);
#141 = CARTESIAN_POINT('',(-0.329679946722,0.,-0.329679946722));
#142 = CARTESIAN_POINT('',(0.329679946722,0.,-0.329679946722));
#143 = CARTESIAN_POINT('',(-0.329679946722,0.,0.329679946722));
#144 = CARTESIAN_POINT('',(0.329679946722,0.,0.329679946722));
#145 = ( GEOMETRIC_REPRESENTATION_CONTEXT(3) 
GLOBAL_UNCERTAINTY_ASSIGNED_CONTEXT((#149)) GLOBAL_UNIT_ASSIGNED_CONTEXT
((#146,#147,#148)) REPRESENTATION_CONTEXT('Context #1',
  '3D Context with UNIT and UNCERTAINTY') );
#146 = ( LENGTH_UNIT() NAMED_UNIT(*) SI_UNIT(.MILLI.,.METRE.) );
#147 = ( NAMED_UNIT(*) PLANE_ANGLE_UNIT() SI_UNIT($,.RADIAN.) );
#148 = ( NAMED_UNIT(*) SI_UNIT($,.STERADIAN.) SOLID_ANGLE_UNIT() );
#149 = UNCERTAINTY_MEASURE_WITH_UNIT(LENGTH_MEASURE(0.2),#146,
  'distance_accuracy_value','confusion accuracy');
#150 = PRODUCT_RELATED_PRODUCT_CATEGORY('part',$,(#7));
ENDSEC;
END-ISO-10303-21;
