ISO-10303-21;
HEADER;
FILE_DESCRIPTION(('FreeCAD Model'),'2;1');
FILE_NAME('Open CASCADE Shape Model','2025-04-27T16:28:49',('FreeCAD'),(
    'FreeCAD'),'Open CASCADE STEP processor 7.6','FreeCAD','Unknown');
FILE_SCHEMA(('AUTOMOTIVE_DESIGN { 1 0 10303 214 1 1 1 1 }'));
ENDSEC;
DATA;
#1 = APPLICATION_PROTOCOL_DEFINITION('international standard',
  'automotive_design',2000,#2);
#2 = APPLICATION_CONTEXT(
  'core data for automotive mechanical design processes');
#3 = SHAPE_DEFINITION_REPRESENTATION(#4,#10);
#4 = PRODUCT_DEFINITION_SHAPE('','',#5);
#5 = PRODUCT_DEFINITION('design','',#6,#9);
#6 = PRODUCT_DEFINITION_FORMATION('','',#7);
#7 = PRODUCT('Open CASCADE STEP translator 7.6 1',
  'Open CASCADE STEP translator 7.6 1','',(#8));
#8 = PRODUCT_CONTEXT('',#2,'mechanical');
#9 = PRODUCT_DEFINITION_CONTEXT('part definition',#2,'design');
#10 = ADVANCED_BREP_SHAPE_REPRESENTATION('',(#11,#15),#269);
#11 = AXIS2_PLACEMENT_3D('',#12,#13,#14);
#12 = CARTESIAN_POINT('',(0.,0.,0.));
#13 = DIRECTION('',(0.,0.,1.));
#14 = DIRECTION('',(1.,0.,-0.));
#15 = MANIFOLD_SOLID_BREP('',#16);
#16 = CLOSED_SHELL('',(#17,#229,#249,#259));
#17 = ADVANCED_FACE('',(#18),#136,.F.);
#18 = FACE_BOUND('',#19,.F.);
#19 = EDGE_LOOP('',(#20,#29,#80,#87));
#20 = ORIENTED_EDGE('',*,*,#21,.F.);
#21 = EDGE_CURVE('',#22,#24,#26,.T.);
#22 = VERTEX_POINT('',#23);
#23 = CARTESIAN_POINT('',(47.726374207435,3.495835470783E-02,
    -47.32167527523));
#24 = VERTEX_POINT('',#25);
#25 = CARTESIAN_POINT('',(-47.72637420743,3.495835470783E-02,
    -47.32167527523));
#26 = B_SPLINE_CURVE_WITH_KNOTS('',1,(#27,#28),.UNSPECIFIED.,.F.,.F.,(2,
    2),(-0.,100.),.PIECEWISE_BEZIER_KNOTS.);
#27 = CARTESIAN_POINT('',(47.726374207435,3.495835470783E-02,
    -47.32167527523));
#28 = CARTESIAN_POINT('',(-47.72637420743,3.495835470783E-02,
    -47.32167527523));
#29 = ORIENTED_EDGE('',*,*,#30,.T.);
#30 = EDGE_CURVE('',#22,#31,#33,.T.);
#31 = VERTEX_POINT('',#32);
#32 = CARTESIAN_POINT('',(47.726374207435,-3.495835470783E-02,
    -47.32167527523));
#33 = B_SPLINE_CURVE_WITH_KNOTS('',3,(#34,#35,#36,#37,#38,#39,#40,#41,
    #42,#43,#44,#45,#46,#47,#48,#49,#50,#51,#52,#53,#54,#55,#56,#57,#58,
    #59,#60,#61,#62,#63,#64,#65,#66,#67,#68,#69,#70,#71,#72,#73,#74,#75,
    #76,#77,#78,#79),.UNSPECIFIED.,.F.,.F.,(4,1,1,1,1,1,1,1,1,1,1,1,1,1,
    1,1,1,1,1,1,1,1,1,1,1,1,1,1,1,1,1,1,1,1,1,1,1,1,1,1,1,1,1,4),(0.,
    2.759549776756E-02,6.140422048831E-02,0.100610011836,0.142853408805,
    0.186490025226,0.215717392508,0.24468173501,0.273092616777,
    0.300700560812,0.327256801969,0.364670655211,0.387705213767,
    0.428386298423,0.453538787593,0.473545925056,0.483823315229,
    0.491547395653,0.496752491164,0.498542508211,0.500010540196,
    0.50147857218,0.505542881311,0.511989683974,0.520995583425,
    0.532520710552,0.554295279495,0.581055109078,0.612294177859,
    0.635328736416,0.647441209378,0.672743027188,0.699299268344,
    0.726907212379,0.755318094147,0.784282436648,0.813509803931,
    0.842686982517,0.871455554574,0.899389921071,0.925988224505,
    0.950613824503,0.972404484262,1.),.UNSPECIFIED.);
#34 = CARTESIAN_POINT('',(47.726374207435,3.495835470783E-02,
    -47.32167527523));
#35 = CARTESIAN_POINT('',(47.726374207435,0.106469874467,-46.44718913405
    ));
#36 = CARTESIAN_POINT('',(47.726374207435,0.260329985092,-44.50089787465
    ));
#37 = CARTESIAN_POINT('',(47.726374207435,0.494704239627,-41.31056605046
    ));
#38 = CARTESIAN_POINT('',(47.726374207435,0.741508943313,-37.65421935758
    ));
#39 = CARTESIAN_POINT('',(47.726374207435,0.983752101186,-33.68445492359
    ));
#40 = CARTESIAN_POINT('',(47.726374207435,1.182564553834,-30.0299668476)
  );
#41 = CARTESIAN_POINT('',(47.726374207435,1.336418056725,-26.7959605385)
  );
#42 = CARTESIAN_POINT('',(47.726374207435,1.450419104583,-24.04475776806
    ));
#43 = CARTESIAN_POINT('',(47.726374207435,1.542758754171,-21.34425923791
    ));
#44 = CARTESIAN_POINT('',(47.726374207435,1.610943841679,-18.71961484742
    ));
#45 = CARTESIAN_POINT('',(47.726374207435,1.65675331175,-15.80820434472)
  );
#46 = CARTESIAN_POINT('',(47.726374207435,1.661850265773,-13.04165880156
    ));
#47 = CARTESIAN_POINT('',(47.726374207435,1.608025688599,-9.826634177088
    ));
#48 = CARTESIAN_POINT('',(47.726374207435,1.492970394198,-7.002579932549
    ));
#49 = CARTESIAN_POINT('',(47.726374207435,1.264171682099,-4.281884940021
    ));
#50 = CARTESIAN_POINT('',(47.726374207435,1.028460261228,-2.534498560387
    ));
#51 = CARTESIAN_POINT('',(47.726374207435,0.780586239824,-1.349123419087
    ));
#52 = CARTESIAN_POINT('',(47.726374207435,0.561930207436,-0.645976519252
    ));
#53 = CARTESIAN_POINT('',(47.726374207435,0.351961383888,-0.21739283212)
  );
#54 = CARTESIAN_POINT('',(47.726374207435,0.15083559968,
    -3.181693269764E-02));
#55 = CARTESIAN_POINT('',(47.726374207435,-1.148960278809E-04,
    1.459429112974E-02));
#56 = CARTESIAN_POINT('',(47.726374207435,-0.222610251695,
    -5.584740225462E-02));
#57 = CARTESIAN_POINT('',(47.726374207435,-0.45119120683,-0.389846685656
    ));
#58 = CARTESIAN_POINT('',(47.726374207435,-0.671661653999,
    -0.962465716089));
#59 = CARTESIAN_POINT('',(47.726374207435,-0.883733339596,
    -1.798930266065));
#60 = CARTESIAN_POINT('',(47.726374207435,-1.118249809176,
    -3.122337300133));
#61 = CARTESIAN_POINT('',(47.726374207435,-1.337254319359,
    -5.021447158281));
#62 = CARTESIAN_POINT('',(47.726374207435,-1.516436919723,
    -7.551617879295));
#63 = CARTESIAN_POINT('',(47.726374207435,-1.613311137775,
    -10.12679521179));
#64 = CARTESIAN_POINT('',(47.726374207435,-1.648181789138,-12.2373012621
    ));
#65 = CARTESIAN_POINT('',(47.726374207435,-1.660282449854,
    -14.15926164936));
#66 = CARTESIAN_POINT('',(47.726374207435,-1.650516969016,
    -16.19325175848));
#67 = CARTESIAN_POINT('',(47.726374207435,-1.610994477598,-18.7196186487
    ));
#68 = CARTESIAN_POINT('',(47.726374207435,-1.542744600876,-21.3442581656
    ));
#69 = CARTESIAN_POINT('',(47.726374207435,-1.450422738579,
    -24.04475808164));
#70 = CARTESIAN_POINT('',(47.726374207435,-1.33641815984,-26.79596038958
    ));
#71 = CARTESIAN_POINT('',(47.726374207435,-1.2044073236,-29.57074408933)
  );
#72 = CARTESIAN_POINT('',(47.726374207435,-1.05760462041,-32.33854795889
    ));
#73 = CARTESIAN_POINT('',(47.726374207435,-0.900134466976,
    -35.06458427335));
#74 = CARTESIAN_POINT('',(47.726374207435,-0.73568777026,-37.70805762775
    ));
#75 = CARTESIAN_POINT('',(47.726374207435,-0.568859257157,
    -40.21938026289));
#76 = CARTESIAN_POINT('',(47.726374207435,-0.404630451232,
    -42.53507845346));
#77 = CARTESIAN_POINT('',(47.726374207435,-0.230518266543,
    -44.88184996924));
#78 = CARTESIAN_POINT('',(47.726374207435,-0.106133185625,
    -46.44716400779));
#79 = CARTESIAN_POINT('',(47.726374207435,-3.495835470783E-02,
    -47.32167527523));
#80 = ORIENTED_EDGE('',*,*,#81,.T.);
#81 = EDGE_CURVE('',#31,#82,#84,.T.);
#82 = VERTEX_POINT('',#83);
#83 = CARTESIAN_POINT('',(-47.72637420743,-3.495835470783E-02,
    -47.32167527523));
#84 = B_SPLINE_CURVE_WITH_KNOTS('',1,(#85,#86),.UNSPECIFIED.,.F.,.F.,(2,
    2),(-0.,100.),.PIECEWISE_BEZIER_KNOTS.);
#85 = CARTESIAN_POINT('',(47.726374207435,-3.495835470783E-02,
    -47.32167527523));
#86 = CARTESIAN_POINT('',(-47.72637420743,-3.495835470783E-02,
    -47.32167527523));
#87 = ORIENTED_EDGE('',*,*,#88,.F.);
#88 = EDGE_CURVE('',#24,#82,#89,.T.);
#89 = B_SPLINE_CURVE_WITH_KNOTS('',3,(#90,#91,#92,#93,#94,#95,#96,#97,
    #98,#99,#100,#101,#102,#103,#104,#105,#106,#107,#108,#109,#110,#111,
    #112,#113,#114,#115,#116,#117,#118,#119,#120,#121,#122,#123,#124,
    #125,#126,#127,#128,#129,#130,#131,#132,#133,#134,#135),
  .UNSPECIFIED.,.F.,.F.,(4,1,1,1,1,1,1,1,1,1,1,1,1,1,1,1,1,1,1,1,1,1,1,1
    ,1,1,1,1,1,1,1,1,1,1,1,1,1,1,1,1,1,1,1,4),(0.,2.759549776756E-02,
    6.140422048831E-02,0.100610011836,0.142853408805,0.186490025226,
    0.215717392508,0.24468173501,0.273092616777,0.300700560812,
    0.327256801969,0.364670655211,0.387705213767,0.428386298423,
    0.453538787593,0.473545925056,0.483823315229,0.491547395653,
    0.496752491164,0.498542508211,0.500010540196,0.50147857218,
    0.505542881311,0.511989683974,0.520995583425,0.532520710552,
    0.554295279495,0.581055109078,0.612294177859,0.635328736416,
    0.647441209378,0.672743027188,0.699299268344,0.726907212379,
    0.755318094147,0.784282436648,0.813509803931,0.842686982517,
    0.871455554574,0.899389921071,0.925988224505,0.950613824503,
    0.972404484262,1.),.UNSPECIFIED.);
#90 = CARTESIAN_POINT('',(-47.72637420743,3.495835470783E-02,
    -47.32167527523));
#91 = CARTESIAN_POINT('',(-47.72637420743,0.106469874467,-46.44718913405
    ));
#92 = CARTESIAN_POINT('',(-47.72637420743,0.260329985092,-44.50089787465
    ));
#93 = CARTESIAN_POINT('',(-47.72637420743,0.494704239627,-41.31056605046
    ));
#94 = CARTESIAN_POINT('',(-47.72637420743,0.741508943313,-37.65421935758
    ));
#95 = CARTESIAN_POINT('',(-47.72637420743,0.983752101186,-33.68445492359
    ));
#96 = CARTESIAN_POINT('',(-47.72637420743,1.182564553834,-30.0299668476)
  );
#97 = CARTESIAN_POINT('',(-47.72637420743,1.336418056725,-26.7959605385)
  );
#98 = CARTESIAN_POINT('',(-47.72637420743,1.450419104583,-24.04475776806
    ));
#99 = CARTESIAN_POINT('',(-47.72637420743,1.542758754171,-21.34425923791
    ));
#100 = CARTESIAN_POINT('',(-47.72637420743,1.610943841679,
    -18.71961484742));
#101 = CARTESIAN_POINT('',(-47.72637420743,1.65675331175,-15.80820434472
    ));
#102 = CARTESIAN_POINT('',(-47.72637420743,1.661850265773,
    -13.04165880156));
#103 = CARTESIAN_POINT('',(-47.72637420743,1.608025688599,
    -9.826634177088));
#104 = CARTESIAN_POINT('',(-47.72637420743,1.492970394198,
    -7.002579932549));
#105 = CARTESIAN_POINT('',(-47.72637420743,1.264171682099,
    -4.281884940021));
#106 = CARTESIAN_POINT('',(-47.72637420743,1.028460261228,
    -2.534498560387));
#107 = CARTESIAN_POINT('',(-47.72637420743,0.780586239824,
    -1.349123419087));
#108 = CARTESIAN_POINT('',(-47.72637420743,0.561930207436,
    -0.645976519252));
#109 = CARTESIAN_POINT('',(-47.72637420743,0.351961383888,-0.21739283212
    ));
#110 = CARTESIAN_POINT('',(-47.72637420743,0.15083559968,
    -3.181693269764E-02));
#111 = CARTESIAN_POINT('',(-47.72637420743,-1.148960278809E-04,
    1.459429112974E-02));
#112 = CARTESIAN_POINT('',(-47.72637420743,-0.222610251695,
    -5.584740225462E-02));
#113 = CARTESIAN_POINT('',(-47.72637420743,-0.45119120683,
    -0.389846685656));
#114 = CARTESIAN_POINT('',(-47.72637420743,-0.671661653999,
    -0.962465716089));
#115 = CARTESIAN_POINT('',(-47.72637420743,-0.883733339596,
    -1.798930266065));
#116 = CARTESIAN_POINT('',(-47.72637420743,-1.118249809176,
    -3.122337300133));
#117 = CARTESIAN_POINT('',(-47.72637420743,-1.337254319359,
    -5.021447158281));
#118 = CARTESIAN_POINT('',(-47.72637420743,-1.516436919723,
    -7.551617879295));
#119 = CARTESIAN_POINT('',(-47.72637420743,-1.613311137775,
    -10.12679521179));
#120 = CARTESIAN_POINT('',(-47.72637420743,-1.648181789138,
    -12.2373012621));
#121 = CARTESIAN_POINT('',(-47.72637420743,-1.660282449854,
    -14.15926164936));
#122 = CARTESIAN_POINT('',(-47.72637420743,-1.650516969016,
    -16.19325175848));
#123 = CARTESIAN_POINT('',(-47.72637420743,-1.610994477598,
    -18.7196186487));
#124 = CARTESIAN_POINT('',(-47.72637420743,-1.542744600876,
    -21.3442581656));
#125 = CARTESIAN_POINT('',(-47.72637420743,-1.450422738579,
    -24.04475808164));
#126 = CARTESIAN_POINT('',(-47.72637420743,-1.33641815984,
    -26.79596038958));
#127 = CARTESIAN_POINT('',(-47.72637420743,-1.2044073236,-29.57074408933
    ));
#128 = CARTESIAN_POINT('',(-47.72637420743,-1.05760462041,
    -32.33854795889));
#129 = CARTESIAN_POINT('',(-47.72637420743,-0.900134466976,
    -35.06458427335));
#130 = CARTESIAN_POINT('',(-47.72637420743,-0.73568777026,
    -37.70805762775));
#131 = CARTESIAN_POINT('',(-47.72637420743,-0.568859257157,
    -40.21938026289));
#132 = CARTESIAN_POINT('',(-47.72637420743,-0.404630451232,
    -42.53507845346));
#133 = CARTESIAN_POINT('',(-47.72637420743,-0.230518266543,
    -44.88184996924));
#134 = CARTESIAN_POINT('',(-47.72637420743,-0.106133185625,
    -46.44716400779));
#135 = CARTESIAN_POINT('',(-47.72637420743,-3.495835470783E-02,
    -47.32167527523));
#136 = B_SPLINE_SURFACE_WITH_KNOTS('',3,1,(
    (#137,#138)
    ,(#139,#140)
    ,(#141,#142)
    ,(#143,#144)
    ,(#145,#146)
    ,(#147,#148)
    ,(#149,#150)
    ,(#151,#152)
    ,(#153,#154)
    ,(#155,#156)
    ,(#157,#158)
    ,(#159,#160)
    ,(#161,#162)
    ,(#163,#164)
    ,(#165,#166)
    ,(#167,#168)
    ,(#169,#170)
    ,(#171,#172)
    ,(#173,#174)
    ,(#175,#176)
    ,(#177,#178)
    ,(#179,#180)
    ,(#181,#182)
    ,(#183,#184)
    ,(#185,#186)
    ,(#187,#188)
    ,(#189,#190)
    ,(#191,#192)
    ,(#193,#194)
    ,(#195,#196)
    ,(#197,#198)
    ,(#199,#200)
    ,(#201,#202)
    ,(#203,#204)
    ,(#205,#206)
    ,(#207,#208)
    ,(#209,#210)
    ,(#211,#212)
    ,(#213,#214)
    ,(#215,#216)
    ,(#217,#218)
    ,(#219,#220)
    ,(#221,#222)
    ,(#223,#224)
    ,(#225,#226)
    ,(#227,#228
    )),.UNSPECIFIED.,.F.,.F.,.F.,(4,1,1,1,1,1,1,1,1,1,1,1,1,1,1,1,1,1,1,
    1,1,1,1,1,1,1,1,1,1,1,1,1,1,1,1,1,1,1,1,1,1,1,1,4),(2,2),(0.,
    2.759549776756E-02,6.140422048831E-02,0.100610011836,0.142853408805,
    0.186490025226,0.215717392508,0.24468173501,0.273092616777,
    0.300700560812,0.327256801969,0.364670655211,0.387705213767,
    0.428386298423,0.453538787593,0.473545925056,0.483823315229,
    0.491547395653,0.496752491164,0.498542508211,0.500010540196,
    0.50147857218,0.505542881311,0.511989683974,0.520995583425,
    0.532520710552,0.554295279495,0.581055109078,0.612294177859,
    0.635328736416,0.647441209378,0.672743027188,0.699299268344,
    0.726907212379,0.755318094147,0.784282436648,0.813509803931,
    0.842686982517,0.871455554574,0.899389921071,0.925988224505,
    0.950613824503,0.972404484262,1.),(0.,1.),.UNSPECIFIED.);
#137 = CARTESIAN_POINT('',(47.726374207435,3.495835470783E-02,
    -47.32167527523));
#138 = CARTESIAN_POINT('',(-47.72637420743,3.495835470783E-02,
    -47.32167527523));
#139 = CARTESIAN_POINT('',(47.726374207435,0.106469874467,
    -46.44718913405));
#140 = CARTESIAN_POINT('',(-47.72637420743,0.106469874467,
    -46.44718913405));
#141 = CARTESIAN_POINT('',(47.726374207435,0.260329985092,
    -44.50089787465));
#142 = CARTESIAN_POINT('',(-47.72637420743,0.260329985092,
    -44.50089787465));
#143 = CARTESIAN_POINT('',(47.726374207435,0.494704239627,
    -41.31056605046));
#144 = CARTESIAN_POINT('',(-47.72637420743,0.494704239627,
    -41.31056605046));
#145 = CARTESIAN_POINT('',(47.726374207435,0.741508943313,
    -37.65421935758));
#146 = CARTESIAN_POINT('',(-47.72637420743,0.741508943313,
    -37.65421935758));
#147 = CARTESIAN_POINT('',(47.726374207435,0.983752101186,
    -33.68445492359));
#148 = CARTESIAN_POINT('',(-47.72637420743,0.983752101186,
    -33.68445492359));
#149 = CARTESIAN_POINT('',(47.726374207435,1.182564553834,-30.0299668476
    ));
#150 = CARTESIAN_POINT('',(-47.72637420743,1.182564553834,-30.0299668476
    ));
#151 = CARTESIAN_POINT('',(47.726374207435,1.336418056725,-26.7959605385
    ));
#152 = CARTESIAN_POINT('',(-47.72637420743,1.336418056725,-26.7959605385
    ));
#153 = CARTESIAN_POINT('',(47.726374207435,1.450419104583,
    -24.04475776806));
#154 = CARTESIAN_POINT('',(-47.72637420743,1.450419104583,
    -24.04475776806));
#155 = CARTESIAN_POINT('',(47.726374207435,1.542758754171,
    -21.34425923791));
#156 = CARTESIAN_POINT('',(-47.72637420743,1.542758754171,
    -21.34425923791));
#157 = CARTESIAN_POINT('',(47.726374207435,1.610943841679,
    -18.71961484742));
#158 = CARTESIAN_POINT('',(-47.72637420743,1.610943841679,
    -18.71961484742));
#159 = CARTESIAN_POINT('',(47.726374207435,1.65675331175,-15.80820434472
    ));
#160 = CARTESIAN_POINT('',(-47.72637420743,1.65675331175,-15.80820434472
    ));
#161 = CARTESIAN_POINT('',(47.726374207435,1.661850265773,
    -13.04165880156));
#162 = CARTESIAN_POINT('',(-47.72637420743,1.661850265773,
    -13.04165880156));
#163 = CARTESIAN_POINT('',(47.726374207435,1.608025688599,
    -9.826634177088));
#164 = CARTESIAN_POINT('',(-47.72637420743,1.608025688599,
    -9.826634177088));
#165 = CARTESIAN_POINT('',(47.726374207435,1.492970394198,
    -7.002579932549));
#166 = CARTESIAN_POINT('',(-47.72637420743,1.492970394198,
    -7.002579932549));
#167 = CARTESIAN_POINT('',(47.726374207435,1.264171682099,
    -4.281884940021));
#168 = CARTESIAN_POINT('',(-47.72637420743,1.264171682099,
    -4.281884940021));
#169 = CARTESIAN_POINT('',(47.726374207435,1.028460261228,
    -2.534498560387));
#170 = CARTESIAN_POINT('',(-47.72637420743,1.028460261228,
    -2.534498560387));
#171 = CARTESIAN_POINT('',(47.726374207435,0.780586239824,
    -1.349123419087));
#172 = CARTESIAN_POINT('',(-47.72637420743,0.780586239824,
    -1.349123419087));
#173 = CARTESIAN_POINT('',(47.726374207435,0.561930207436,
    -0.645976519252));
#174 = CARTESIAN_POINT('',(-47.72637420743,0.561930207436,
    -0.645976519252));
#175 = CARTESIAN_POINT('',(47.726374207435,0.351961383888,-0.21739283212
    ));
#176 = CARTESIAN_POINT('',(-47.72637420743,0.351961383888,-0.21739283212
    ));
#177 = CARTESIAN_POINT('',(47.726374207435,0.15083559968,
    -3.181693269764E-02));
#178 = CARTESIAN_POINT('',(-47.72637420743,0.15083559968,
    -3.181693269764E-02));
#179 = CARTESIAN_POINT('',(47.726374207435,-1.148960278809E-04,
    1.459429112974E-02));
#180 = CARTESIAN_POINT('',(-47.72637420743,-1.148960278809E-04,
    1.459429112974E-02));
#181 = CARTESIAN_POINT('',(47.726374207435,-0.222610251695,
    -5.584740225462E-02));
#182 = CARTESIAN_POINT('',(-47.72637420743,-0.222610251695,
    -5.584740225462E-02));
#183 = CARTESIAN_POINT('',(47.726374207435,-0.45119120683,
    -0.389846685656));
#184 = CARTESIAN_POINT('',(-47.72637420743,-0.45119120683,
    -0.389846685656));
#185 = CARTESIAN_POINT('',(47.726374207435,-0.671661653999,
    -0.962465716089));
#186 = CARTESIAN_POINT('',(-47.72637420743,-0.671661653999,
    -0.962465716089));
#187 = CARTESIAN_POINT('',(47.726374207435,-0.883733339596,
    -1.798930266065));
#188 = CARTESIAN_POINT('',(-47.72637420743,-0.883733339596,
    -1.798930266065));
#189 = CARTESIAN_POINT('',(47.726374207435,-1.118249809176,
    -3.122337300133));
#190 = CARTESIAN_POINT('',(-47.72637420743,-1.118249809176,
    -3.122337300133));
#191 = CARTESIAN_POINT('',(47.726374207435,-1.337254319359,
    -5.021447158281));
#192 = CARTESIAN_POINT('',(-47.72637420743,-1.337254319359,
    -5.021447158281));
#193 = CARTESIAN_POINT('',(47.726374207435,-1.516436919723,
    -7.551617879295));
#194 = CARTESIAN_POINT('',(-47.72637420743,-1.516436919723,
    -7.551617879295));
#195 = CARTESIAN_POINT('',(47.726374207435,-1.613311137775,
    -10.12679521179));
#196 = CARTESIAN_POINT('',(-47.72637420743,-1.613311137775,
    -10.12679521179));
#197 = CARTESIAN_POINT('',(47.726374207435,-1.648181789138,
    -12.2373012621));
#198 = CARTESIAN_POINT('',(-47.72637420743,-1.648181789138,
    -12.2373012621));
#199 = CARTESIAN_POINT('',(47.726374207435,-1.660282449854,
    -14.15926164936));
#200 = CARTESIAN_POINT('',(-47.72637420743,-1.660282449854,
    -14.15926164936));
#201 = CARTESIAN_POINT('',(47.726374207435,-1.650516969016,
    -16.19325175848));
#202 = CARTESIAN_POINT('',(-47.72637420743,-1.650516969016,
    -16.19325175848));
#203 = CARTESIAN_POINT('',(47.726374207435,-1.610994477598,
    -18.7196186487));
#204 = CARTESIAN_POINT('',(-47.72637420743,-1.610994477598,
    -18.7196186487));
#205 = CARTESIAN_POINT('',(47.726374207435,-1.542744600876,
    -21.3442581656));
#206 = CARTESIAN_POINT('',(-47.72637420743,-1.542744600876,
    -21.3442581656));
#207 = CARTESIAN_POINT('',(47.726374207435,-1.450422738579,
    -24.04475808164));
#208 = CARTESIAN_POINT('',(-47.72637420743,-1.450422738579,
    -24.04475808164));
#209 = CARTESIAN_POINT('',(47.726374207435,-1.33641815984,
    -26.79596038958));
#210 = CARTESIAN_POINT('',(-47.72637420743,-1.33641815984,
    -26.79596038958));
#211 = CARTESIAN_POINT('',(47.726374207435,-1.2044073236,-29.57074408933
    ));
#212 = CARTESIAN_POINT('',(-47.72637420743,-1.2044073236,-29.57074408933
    ));
#213 = CARTESIAN_POINT('',(47.726374207435,-1.05760462041,
    -32.33854795889));
#214 = CARTESIAN_POINT('',(-47.72637420743,-1.05760462041,
    -32.33854795889));
#215 = CARTESIAN_POINT('',(47.726374207435,-0.900134466976,
    -35.06458427335));
#216 = CARTESIAN_POINT('',(-47.72637420743,-0.900134466976,
    -35.06458427335));
#217 = CARTESIAN_POINT('',(47.726374207435,-0.73568777026,
    -37.70805762775));
#218 = CARTESIAN_POINT('',(-47.72637420743,-0.73568777026,
    -37.70805762775));
#219 = CARTESIAN_POINT('',(47.726374207435,-0.568859257157,
    -40.21938026289));
#220 = CARTESIAN_POINT('',(-47.72637420743,-0.568859257157,
    -40.21938026289));
#221 = CARTESIAN_POINT('',(47.726374207435,-0.404630451232,
    -42.53507845346));
#222 = CARTESIAN_POINT('',(-47.72637420743,-0.404630451232,
    -42.53507845346));
#223 = CARTESIAN_POINT('',(47.726374207435,-0.230518266543,
    -44.88184996924));
#224 = CARTESIAN_POINT('',(-47.72637420743,-0.230518266543,
    -44.88184996924));
#225 = CARTESIAN_POINT('',(47.726374207435,-0.106133185625,
    -46.44716400779));
#226 = CARTESIAN_POINT('',(-47.72637420743,-0.106133185625,
    -46.44716400779));
#227 = CARTESIAN_POINT('',(47.726374207435,-3.495835470783E-02,
    -47.32167527523));
#228 = CARTESIAN_POINT('',(-47.72637420743,-3.495835470783E-02,
    -47.32167527523));
#229 = ADVANCED_FACE('',(#230),#244,.T.);
#230 = FACE_BOUND('',#231,.T.);
#231 = EDGE_LOOP('',(#232,#237,#238,#243));
#232 = ORIENTED_EDGE('',*,*,#233,.F.);
#233 = EDGE_CURVE('',#24,#82,#234,.T.);
#234 = B_SPLINE_CURVE_WITH_KNOTS('',1,(#235,#236),.UNSPECIFIED.,.F.,.F.,
  (2,2),(0.,7.324745549681E-02),.PIECEWISE_BEZIER_KNOTS.);
#235 = CARTESIAN_POINT('',(-47.72637420743,3.495835470783E-02,
    -47.32167527523));
#236 = CARTESIAN_POINT('',(-47.72637420743,-3.495835470783E-02,
    -47.32167527523));
#237 = ORIENTED_EDGE('',*,*,#21,.F.);
#238 = ORIENTED_EDGE('',*,*,#239,.T.);
#239 = EDGE_CURVE('',#22,#31,#240,.T.);
#240 = B_SPLINE_CURVE_WITH_KNOTS('',1,(#241,#242),.UNSPECIFIED.,.F.,.F.,
  (2,2),(0.,7.324745549681E-02),.PIECEWISE_BEZIER_KNOTS.);
#241 = CARTESIAN_POINT('',(47.726374207435,3.495835470783E-02,
    -47.32167527523));
#242 = CARTESIAN_POINT('',(47.726374207435,-3.495835470783E-02,
    -47.32167527523));
#243 = ORIENTED_EDGE('',*,*,#81,.T.);
#244 = B_SPLINE_SURFACE_WITH_KNOTS('',1,1,(
    (#245,#246)
    ,(#247,#248
    )),.UNSPECIFIED.,.F.,.F.,.F.,(2,2),(2,2),(0.,100.),(
    -7.324745549681E-02,0.),.PIECEWISE_BEZIER_KNOTS.);
#245 = CARTESIAN_POINT('',(47.726374207435,-3.495835470783E-02,
    -47.32167527523));
#246 = CARTESIAN_POINT('',(47.726374207435,3.495835470783E-02,
    -47.32167527523));
#247 = CARTESIAN_POINT('',(-47.72637420743,-3.495835470783E-02,
    -47.32167527523));
#248 = CARTESIAN_POINT('',(-47.72637420743,3.495835470783E-02,
    -47.32167527523));
#249 = ADVANCED_FACE('',(#250),#254,.F.);
#250 = FACE_BOUND('',#251,.T.);
#251 = EDGE_LOOP('',(#252,#253));
#252 = ORIENTED_EDGE('',*,*,#30,.T.);
#253 = ORIENTED_EDGE('',*,*,#239,.F.);
#254 = B_SPLINE_SURFACE_WITH_KNOTS('',1,1,(
    (#255,#256)
    ,(#257,#258
    )),.UNSPECIFIED.,.F.,.F.,.F.,(2,2),(2,2),(-49.57602336004,
    1.528789338091E-02),(-1.74043175955,1.739963274429),
  .PIECEWISE_BEZIER_KNOTS.);
#255 = CARTESIAN_POINT('',(47.726374207435,-1.660282449854,
    -47.32167527523));
#256 = CARTESIAN_POINT('',(47.726374207435,1.661850265773,
    -47.32167527523));
#257 = CARTESIAN_POINT('',(47.726374207435,-1.660282449854,
    1.459429112974E-02));
#258 = CARTESIAN_POINT('',(47.726374207435,1.661850265773,
    1.459429112974E-02));
#259 = ADVANCED_FACE('',(#260),#264,.T.);
#260 = FACE_BOUND('',#261,.T.);
#261 = EDGE_LOOP('',(#262,#263));
#262 = ORIENTED_EDGE('',*,*,#88,.F.);
#263 = ORIENTED_EDGE('',*,*,#233,.T.);
#264 = B_SPLINE_SURFACE_WITH_KNOTS('',1,1,(
    (#265,#266)
    ,(#267,#268
    )),.UNSPECIFIED.,.F.,.F.,.F.,(2,2),(2,2),(-49.57602336004,
    1.528789338091E-02),(-1.74043175955,1.739963274429),
  .PIECEWISE_BEZIER_KNOTS.);
#265 = CARTESIAN_POINT('',(-47.72637420743,-1.660282449854,
    -47.32167527523));
#266 = CARTESIAN_POINT('',(-47.72637420743,1.661850265773,
    -47.32167527523));
#267 = CARTESIAN_POINT('',(-47.72637420743,-1.660282449854,
    1.459429112974E-02));
#268 = CARTESIAN_POINT('',(-47.72637420743,1.661850265773,
    1.459429112974E-02));
#269 = ( GEOMETRIC_REPRESENTATION_CONTEXT(3) 
GLOBAL_UNCERTAINTY_ASSIGNED_CONTEXT((#273)) GLOBAL_UNIT_ASSIGNED_CONTEXT
((#270,#271,#272)) REPRESENTATION_CONTEXT('Context #1',
  '3D Context with UNIT and UNCERTAINTY') );
#270 = ( LENGTH_UNIT() NAMED_UNIT(*) SI_UNIT(.MILLI.,.METRE.) );
#271 = ( NAMED_UNIT(*) PLANE_ANGLE_UNIT() SI_UNIT($,.RADIAN.) );
#272 = ( NAMED_UNIT(*) SI_UNIT($,.STERADIAN.) SOLID_ANGLE_UNIT() );
#273 = UNCERTAINTY_MEASURE_WITH_UNIT(LENGTH_MEASURE(1.E-07),#270,
  'distance_accuracy_value','confusion accuracy');
#274 = PRODUCT_RELATED_PRODUCT_CATEGORY('part',$,(#7));
ENDSEC;
END-ISO-10303-21;
