ISO-10303-21;
HEADER;
FILE_DESCRIPTION(('FreeCAD Model'),'2;1');
FILE_NAME('Open CASCADE Shape Model','2025-04-27T13:36:14',('FreeCAD'),(
    'FreeCAD'),'Open CASCADE STEP processor 7.6','FreeCAD','Unknown');
FILE_SCHEMA(('AUTOMOTIVE_DESIGN { 1 0 10303 214 1 1 1 1 }'));
ENDSEC;
DATA;
#1 = APPLICATION_PROTOCOL_DEFINITION('international standard',
  'automotive_design',2000,#2);
#2 = APPLICATION_CONTEXT(
  'core data for automotive mechanical design processes');
#3 = SHAPE_DEFINITION_REPRESENTATION(#4,#10);
#4 = PRODUCT_DEFINITION_SHAPE('','',#5);
#5 = PRODUCT_DEFINITION('design','',#6,#9);
#6 = PRODUCT_DEFINITION_FORMATION('','',#7);
#7 = PRODUCT('Open CASCADE STEP translator 7.6 1',
  'Open CASCADE STEP translator 7.6 1','',(#8));
#8 = PRODUCT_CONTEXT('',#2,'mechanical');
#9 = PRODUCT_DEFINITION_CONTEXT('part definition',#2,'design');
#10 = ADVANCED_BREP_SHAPE_REPRESENTATION('',(#11,#15),#205);
#11 = AXIS2_PLACEMENT_3D('',#12,#13,#14);
#12 = CARTESIAN_POINT('',(0.,0.,0.));
#13 = DIRECTION('',(0.,0.,1.));
#14 = DIRECTION('',(1.,0.,-0.));
#15 = MANIFOLD_SOLID_BREP('',#16);
#16 = CLOSED_SHELL('',(#17,#67,#117,#143,#169,#187));
#17 = ADVANCED_FACE('',(#18,#40),#62,.T.);
#18 = FACE_BOUND('',#19,.T.);
#19 = EDGE_LOOP('',(#20,#32));
#20 = ORIENTED_EDGE('',*,*,#21,.T.);
#21 = EDGE_CURVE('',#22,#24,#26,.T.);
#22 = VERTEX_POINT('',#23);
#23 = CARTESIAN_POINT('',(11.715305828091,-108.9465151765,
    7.841551421849E-11));
#24 = VERTEX_POINT('',#25);
#25 = CARTESIAN_POINT('',(-11.63575178728,-108.9465151765,
    -7.819748566456E-11));
#26 = ( BOUNDED_CURVE() B_SPLINE_CURVE(2,(#27,#28,#29,#30,#31),
.UNSPECIFIED.,.F.,.F.) B_SPLINE_CURVE_WITH_KNOTS((3,2,3),(
    4.930380657631E-32,1.570796326795,3.14159265359),
.PIECEWISE_BEZIER_KNOTS.) CURVE() GEOMETRIC_REPRESENTATION_ITEM() 
RATIONAL_B_SPLINE_CURVE((1.,0.707106781187,1.,0.707106781187,1.)) 
REPRESENTATION_ITEM('') );
#27 = CARTESIAN_POINT('',(11.715305828091,-108.9465151765,
    7.834409484261E-11));
#28 = CARTESIAN_POINT('',(11.715305828013,-108.9465151765,
    11.675528807765));
#29 = CARTESIAN_POINT('',(3.977702032607E-02,-108.9465151765,
    11.675528807687));
#30 = CARTESIAN_POINT('',(-11.63575178736,-108.9465151765,
    11.675528807608));
#31 = CARTESIAN_POINT('',(-11.63575178728,-108.9465151765,
    -7.819748566456E-11));
#32 = ORIENTED_EDGE('',*,*,#33,.T.);
#33 = EDGE_CURVE('',#24,#22,#34,.T.);
#34 = ( BOUNDED_CURVE() B_SPLINE_CURVE(2,(#35,#36,#37,#38,#39),
.UNSPECIFIED.,.F.,.F.) B_SPLINE_CURVE_WITH_KNOTS((3,2,3),(3.14159265359,
4.712388980385,6.28318530718),.PIECEWISE_BEZIER_KNOTS.) CURVE() 
GEOMETRIC_REPRESENTATION_ITEM() RATIONAL_B_SPLINE_CURVE((1.,
0.707106781187,1.,0.707106781187,1.)) REPRESENTATION_ITEM('') );
#35 = CARTESIAN_POINT('',(-11.63575178728,-108.9465151765,
    -7.819748566456E-11));
#36 = CARTESIAN_POINT('',(-11.6357517872,-108.9465151765,-11.67552880776
    ));
#37 = CARTESIAN_POINT('',(3.977702048261E-02,-108.9465151765,
    -11.67552880768));
#38 = CARTESIAN_POINT('',(11.715305828169,-108.9465151765,-11.6755288076
    ));
#39 = CARTESIAN_POINT('',(11.715305828091,-108.9465151765,
    7.834123516282E-11));
#40 = FACE_BOUND('',#41,.T.);
#41 = EDGE_LOOP('',(#42,#54));
#42 = ORIENTED_EDGE('',*,*,#43,.F.);
#43 = EDGE_CURVE('',#44,#46,#48,.T.);
#44 = VERTEX_POINT('',#45);
#45 = CARTESIAN_POINT('',(-10.33847080865,-108.9465151765,
    -6.949504954264E-11));
#46 = VERTEX_POINT('',#47);
#47 = CARTESIAN_POINT('',(10.418024849459,-108.9465151765,
    6.971069422709E-11));
#48 = ( BOUNDED_CURVE() B_SPLINE_CURVE(2,(#49,#50,#51,#52,#53),
.UNSPECIFIED.,.F.,.F.) B_SPLINE_CURVE_WITH_KNOTS((3,2,3),(3.14159265359,
4.712388980385,6.28318530718),.PIECEWISE_BEZIER_KNOTS.) CURVE() 
GEOMETRIC_REPRESENTATION_ITEM() RATIONAL_B_SPLINE_CURVE((1.,
0.707106781187,1.,0.707106781187,1.)) REPRESENTATION_ITEM('') );
#49 = CARTESIAN_POINT('',(-10.33847080865,-108.9465151765,
    -6.949504954264E-11));
#50 = CARTESIAN_POINT('',(-10.33847080858,-108.9465151765,
    -10.37824782912));
#51 = CARTESIAN_POINT('',(3.977702047391E-02,-108.9465151765,
    -10.37824782905));
#52 = CARTESIAN_POINT('',(10.418024849529,-108.9465151765,
    -10.37824782898));
#53 = CARTESIAN_POINT('',(10.418024849459,-108.9465151765,
    6.963665347806E-11));
#54 = ORIENTED_EDGE('',*,*,#55,.F.);
#55 = EDGE_CURVE('',#46,#44,#56,.T.);
#56 = ( BOUNDED_CURVE() B_SPLINE_CURVE(2,(#57,#58,#59,#60,#61),
.UNSPECIFIED.,.F.,.F.) B_SPLINE_CURVE_WITH_KNOTS((3,2,3),(0.,
1.570796326795,3.14159265359),.PIECEWISE_BEZIER_KNOTS.) CURVE() 
GEOMETRIC_REPRESENTATION_ITEM() RATIONAL_B_SPLINE_CURVE((1.,
0.707106781187,1.,0.707106781187,1.)) REPRESENTATION_ITEM('') );
#57 = CARTESIAN_POINT('',(10.418024849459,-108.9465151765,
    6.963919541566E-11));
#58 = CARTESIAN_POINT('',(10.41802484939,-108.9465151765,10.378247829124
    ));
#59 = CARTESIAN_POINT('',(3.977702033478E-02,-108.9465151765,
    10.378247829055));
#60 = CARTESIAN_POINT('',(-10.33847080872,-108.9465151765,
    10.378247828985));
#61 = CARTESIAN_POINT('',(-10.33847080865,-108.9465151765,
    -6.949504954264E-11));
#62 = B_SPLINE_SURFACE_WITH_KNOTS('',1,1,(
    (#63,#64)
    ,(#65,#66)),.UNSPECIFIED.,.F.,.F.,.F.,(2,2),(2,2),(-9.,9.),(-9.,9.),
  .PIECEWISE_BEZIER_KNOTS.);
#63 = CARTESIAN_POINT('',(-11.6357517872,-108.9465151765,-11.67552880776
    ));
#64 = CARTESIAN_POINT('',(-11.63575178736,-108.9465151765,
    11.675528807608));
#65 = CARTESIAN_POINT('',(11.715305828169,-108.9465151765,-11.6755288076
    ));
#66 = CARTESIAN_POINT('',(11.715305828013,-108.9465151765,
    11.675528807765));
#67 = ADVANCED_FACE('',(#68,#90),#112,.F.);
#68 = FACE_BOUND('',#69,.F.);
#69 = EDGE_LOOP('',(#70,#82));
#70 = ORIENTED_EDGE('',*,*,#71,.T.);
#71 = EDGE_CURVE('',#72,#74,#76,.T.);
#72 = VERTEX_POINT('',#73);
#73 = CARTESIAN_POINT('',(11.715305828091,108.86696113574,
    7.855398102579E-11));
#74 = VERTEX_POINT('',#75);
#75 = CARTESIAN_POINT('',(-11.63575178728,108.86696113574,
    -7.821534502758E-11));
#76 = ( BOUNDED_CURVE() B_SPLINE_CURVE(2,(#77,#78,#79,#80,#81),
.UNSPECIFIED.,.F.,.F.) B_SPLINE_CURVE_WITH_KNOTS((3,2,3),(
    4.930380657631E-32,1.570796326795,3.14159265359),
.PIECEWISE_BEZIER_KNOTS.) CURVE() GEOMETRIC_REPRESENTATION_ITEM() 
RATIONAL_B_SPLINE_CURVE((1.,0.707106781187,1.,0.707106781187,1.)) 
REPRESENTATION_ITEM('') );
#77 = CARTESIAN_POINT('',(11.715305828091,108.86696113574,
    7.863214908499E-11));
#78 = CARTESIAN_POINT('',(11.715305828013,108.86696113574,
    11.675528807765));
#79 = CARTESIAN_POINT('',(3.977702032619E-02,108.86696113574,
    11.675528807687));
#80 = CARTESIAN_POINT('',(-11.63575178736,108.86696113574,
    11.675528807609));
#81 = CARTESIAN_POINT('',(-11.63575178728,108.86696113574,
    -7.821534502758E-11));
#82 = ORIENTED_EDGE('',*,*,#83,.T.);
#83 = EDGE_CURVE('',#74,#72,#84,.T.);
#84 = ( BOUNDED_CURVE() B_SPLINE_CURVE(2,(#85,#86,#87,#88,#89),
.UNSPECIFIED.,.F.,.F.) B_SPLINE_CURVE_WITH_KNOTS((3,2,3),(3.14159265359,
4.712388980385,6.28318530718),.PIECEWISE_BEZIER_KNOTS.) CURVE() 
GEOMETRIC_REPRESENTATION_ITEM() RATIONAL_B_SPLINE_CURVE((1.,
0.707106781187,1.,0.707106781187,1.)) REPRESENTATION_ITEM('') );
#85 = CARTESIAN_POINT('',(-11.63575178728,108.86696113574,
    -7.821534502758E-11));
#86 = CARTESIAN_POINT('',(-11.6357517872,108.86696113574,-11.67552880776
    ));
#87 = CARTESIAN_POINT('',(3.977702048304E-02,108.86696113574,
    -11.67552880768));
#88 = CARTESIAN_POINT('',(11.71530582817,108.86696113574,-11.6755288076)
  );
#89 = CARTESIAN_POINT('',(11.715305828091,108.86696113574,
    7.862928940519E-11));
#90 = FACE_BOUND('',#91,.F.);
#91 = EDGE_LOOP('',(#92,#104));
#92 = ORIENTED_EDGE('',*,*,#93,.F.);
#93 = EDGE_CURVE('',#94,#96,#98,.T.);
#94 = VERTEX_POINT('',#95);
#95 = CARTESIAN_POINT('',(-10.33847080865,108.86696113574,
    -6.951118058021E-11));
#96 = VERTEX_POINT('',#97);
#97 = CARTESIAN_POINT('',(10.41802484946,108.86696113574,
    6.984900216329E-11));
#98 = ( BOUNDED_CURVE() B_SPLINE_CURVE(2,(#99,#100,#101,#102,#103),
.UNSPECIFIED.,.F.,.F.) B_SPLINE_CURVE_WITH_KNOTS((3,2,3),(3.14159265359,
4.712388980385,6.28318530718),.PIECEWISE_BEZIER_KNOTS.) CURVE() 
GEOMETRIC_REPRESENTATION_ITEM() RATIONAL_B_SPLINE_CURVE((1.,
0.707106781187,1.,0.707106781187,1.)) REPRESENTATION_ITEM('') );
#99 = CARTESIAN_POINT('',(-10.33847080865,108.86696113574,
    -6.951118058021E-11));
#100 = CARTESIAN_POINT('',(-10.33847080858,108.86696113574,
    -10.37824782912));
#101 = CARTESIAN_POINT('',(3.977702047433E-02,108.86696113574,
    -10.37824782905));
#102 = CARTESIAN_POINT('',(10.418024849529,108.86696113574,
    -10.37824782898));
#103 = CARTESIAN_POINT('',(10.41802484946,108.86696113574,
    6.992470772044E-11));
#104 = ORIENTED_EDGE('',*,*,#105,.F.);
#105 = EDGE_CURVE('',#96,#94,#106,.T.);
#106 = ( BOUNDED_CURVE() B_SPLINE_CURVE(2,(#107,#108,#109,#110,#111),
.UNSPECIFIED.,.F.,.F.) B_SPLINE_CURVE_WITH_KNOTS((3,2,3),(
    8.077935669463E-28,1.570796326795,3.14159265359),
.PIECEWISE_BEZIER_KNOTS.) CURVE() GEOMETRIC_REPRESENTATION_ITEM() 
RATIONAL_B_SPLINE_CURVE((1.,0.707106781187,1.,0.707106781187,1.)) 
REPRESENTATION_ITEM('') );
#107 = CARTESIAN_POINT('',(10.41802484946,108.86696113574,
    6.992724965803E-11));
#108 = CARTESIAN_POINT('',(10.41802484939,108.86696113574,
    10.378247829125));
#109 = CARTESIAN_POINT('',(3.977702033489E-02,108.86696113574,
    10.378247829055));
#110 = CARTESIAN_POINT('',(-10.33847080872,108.86696113574,
    10.378247828985));
#111 = CARTESIAN_POINT('',(-10.33847080865,108.86696113574,
    -6.951118058021E-11));
#112 = B_SPLINE_SURFACE_WITH_KNOTS('',1,1,(
    (#113,#114)
    ,(#115,#116
    )),.UNSPECIFIED.,.F.,.F.,.F.,(2,2),(2,2),(-9.,9.),(-9.,9.),
  .PIECEWISE_BEZIER_KNOTS.);
#113 = CARTESIAN_POINT('',(-11.6357517872,108.86696113574,
    -11.67552880776));
#114 = CARTESIAN_POINT('',(-11.63575178736,108.86696113574,
    11.675528807609));
#115 = CARTESIAN_POINT('',(11.71530582817,108.86696113574,-11.6755288076
    ));
#116 = CARTESIAN_POINT('',(11.715305828013,108.86696113574,
    11.675528807765));
#117 = ADVANCED_FACE('',(#118),#132,.T.);
#118 = FACE_BOUND('',#119,.T.);
#119 = EDGE_LOOP('',(#120,#125,#126,#131));
#120 = ORIENTED_EDGE('',*,*,#121,.T.);
#121 = EDGE_CURVE('',#72,#22,#122,.T.);
#122 = B_SPLINE_CURVE_WITH_KNOTS('',1,(#123,#124),.UNSPECIFIED.,.F.,.F.,
  (2,2),(0.,167.9),.PIECEWISE_BEZIER_KNOTS.);
#123 = CARTESIAN_POINT('',(11.715305828091,108.86696113574,
    7.847581296659E-11));
#124 = CARTESIAN_POINT('',(11.715305828091,-108.9465151765,
    7.848979327417E-11));
#125 = ORIENTED_EDGE('',*,*,#33,.F.);
#126 = ORIENTED_EDGE('',*,*,#127,.F.);
#127 = EDGE_CURVE('',#74,#24,#128,.T.);
#128 = B_SPLINE_CURVE_WITH_KNOTS('',1,(#129,#130),.UNSPECIFIED.,.F.,.F.,
  (2,2),(0.,167.9),.PIECEWISE_BEZIER_KNOTS.);
#129 = CARTESIAN_POINT('',(-11.63575178728,108.86696113574,
    -7.821380655853E-11));
#130 = CARTESIAN_POINT('',(-11.63575178728,-108.9465151765,
    -7.819982625095E-11));
#131 = ORIENTED_EDGE('',*,*,#83,.T.);
#132 = ( BOUNDED_SURFACE() B_SPLINE_SURFACE(2,1,(
    (#133,#134)
    ,(#135,#136)
    ,(#137,#138)
    ,(#139,#140)
,(#141,#142
    )),.UNSPECIFIED.,.F.,.F.,.F.) B_SPLINE_SURFACE_WITH_KNOTS((3,2,3),(2
    ,2),(3.14159265359,4.712388980385,6.28318530718),(-2.9,165.),
.PIECEWISE_BEZIER_KNOTS.) GEOMETRIC_REPRESENTATION_ITEM() 
RATIONAL_B_SPLINE_SURFACE((
    (1.,1.)
    ,(0.707106781187,0.707106781187)
    ,(1.,1.)
    ,(0.707106781187,0.707106781187)
,(1.,1.))) REPRESENTATION_ITEM('') SURFACE() );
#133 = CARTESIAN_POINT('',(11.715305828091,-108.9465151765,
    7.863497261233E-11));
#134 = CARTESIAN_POINT('',(11.715305828091,108.86696113574,
    7.862099230475E-11));
#135 = CARTESIAN_POINT('',(11.71530582817,-108.9465151765,-11.6755288076
    ));
#136 = CARTESIAN_POINT('',(11.71530582817,108.86696113574,-11.6755288076
    ));
#137 = CARTESIAN_POINT('',(3.977702048296E-02,-108.9465151765,
    -11.67552880768));
#138 = CARTESIAN_POINT('',(3.977702048305E-02,108.86696113574,
    -11.67552880768));
#139 = CARTESIAN_POINT('',(-11.6357517872,-108.9465151765,
    -11.67552880776));
#140 = CARTESIAN_POINT('',(-11.6357517872,108.86696113574,
    -11.67552880776));
#141 = CARTESIAN_POINT('',(-11.63575178728,-108.9465151765,
    -7.820268593075E-11));
#142 = CARTESIAN_POINT('',(-11.63575178728,108.86696113574,
    -7.821666623833E-11));
#143 = ADVANCED_FACE('',(#144),#158,.F.);
#144 = FACE_BOUND('',#145,.F.);
#145 = EDGE_LOOP('',(#146,#147,#152,#153));
#146 = ORIENTED_EDGE('',*,*,#43,.F.);
#147 = ORIENTED_EDGE('',*,*,#148,.F.);
#148 = EDGE_CURVE('',#94,#44,#149,.T.);
#149 = B_SPLINE_CURVE_WITH_KNOTS('',1,(#150,#151),.UNSPECIFIED.,.F.,.F.,
  (2,2),(0.,167.9),.PIECEWISE_BEZIER_KNOTS.);
#150 = CARTESIAN_POINT('',(-10.33847080865,108.86696113574,
    -6.950890713158E-11));
#151 = CARTESIAN_POINT('',(-10.33847080865,-108.9465151765,
    -6.9494926824E-11));
#152 = ORIENTED_EDGE('',*,*,#93,.T.);
#153 = ORIENTED_EDGE('',*,*,#154,.T.);
#154 = EDGE_CURVE('',#96,#46,#155,.T.);
#155 = B_SPLINE_CURVE_WITH_KNOTS('',1,(#156,#157),.UNSPECIFIED.,.F.,.F.,
  (2,2),(0.,167.9),.PIECEWISE_BEZIER_KNOTS.);
#156 = CARTESIAN_POINT('',(10.41802484946,108.86696113574,
    6.977075466854E-11));
#157 = CARTESIAN_POINT('',(10.418024849459,-108.9465151765,
    6.978473497611E-11));
#158 = ( BOUNDED_SURFACE() B_SPLINE_SURFACE(2,1,(
    (#159,#160)
    ,(#161,#162)
    ,(#163,#164)
    ,(#165,#166)
,(#167,#168
    )),.UNSPECIFIED.,.F.,.F.,.F.) B_SPLINE_SURFACE_WITH_KNOTS((3,2,3),(2
    ,2),(3.14159265359,4.712388980385,6.28318530718),(-2.9,165.),
.PIECEWISE_BEZIER_KNOTS.) GEOMETRIC_REPRESENTATION_ITEM() 
RATIONAL_B_SPLINE_SURFACE((
    (1.,1.)
    ,(0.707106781187,0.707106781187)
    ,(1.,1.)
    ,(0.707106781187,0.707106781187)
,(1.,1.))) REPRESENTATION_ITEM('') SURFACE() );
#159 = CARTESIAN_POINT('',(10.418024849459,-108.9465151765,
    6.993221874821E-11));
#160 = CARTESIAN_POINT('',(10.41802484946,108.86696113574,
    6.991823844063E-11));
#161 = CARTESIAN_POINT('',(10.418024849529,-108.9465151765,
    -10.37824782898));
#162 = CARTESIAN_POINT('',(10.418024849529,108.86696113574,
    -10.37824782898));
#163 = CARTESIAN_POINT('',(3.977702047425E-02,-108.9465151765,
    -10.37824782905));
#164 = CARTESIAN_POINT('',(3.977702047435E-02,108.86696113574,
    -10.37824782905));
#165 = CARTESIAN_POINT('',(-10.33847080858,-108.9465151765,
    -10.37824782912));
#166 = CARTESIAN_POINT('',(-10.33847080858,108.86696113574,
    -10.37824782912));
#167 = CARTESIAN_POINT('',(-10.33847080865,-108.9465151765,
    -6.949746876159E-11));
#168 = CARTESIAN_POINT('',(-10.33847080865,108.86696113574,
    -6.951144906917E-11));
#169 = ADVANCED_FACE('',(#170),#176,.T.);
#170 = FACE_BOUND('',#171,.T.);
#171 = EDGE_LOOP('',(#172,#173,#174,#175));
#172 = ORIENTED_EDGE('',*,*,#121,.F.);
#173 = ORIENTED_EDGE('',*,*,#71,.T.);
#174 = ORIENTED_EDGE('',*,*,#127,.T.);
#175 = ORIENTED_EDGE('',*,*,#21,.F.);
#176 = ( BOUNDED_SURFACE() B_SPLINE_SURFACE(2,1,(
    (#177,#178)
    ,(#179,#180)
    ,(#181,#182)
    ,(#183,#184)
,(#185,#186
    )),.UNSPECIFIED.,.F.,.F.,.F.) B_SPLINE_SURFACE_WITH_KNOTS((3,2,3),(2
    ,2),(0.,1.570796326795,3.14159265359),(-2.9,165.),
.PIECEWISE_BEZIER_KNOTS.) GEOMETRIC_REPRESENTATION_ITEM() 
RATIONAL_B_SPLINE_SURFACE((
    (1.,1.)
    ,(0.707106781187,0.707106781187)
    ,(1.,1.)
    ,(0.707106781187,0.707106781187)
,(1.,1.))) REPRESENTATION_ITEM('') SURFACE() );
#177 = CARTESIAN_POINT('',(-11.63575178728,-108.9465151765,
    -7.819982625095E-11));
#178 = CARTESIAN_POINT('',(-11.63575178728,108.86696113574,
    -7.821380655853E-11));
#179 = CARTESIAN_POINT('',(-11.63575178736,-108.9465151765,
    11.675528807609));
#180 = CARTESIAN_POINT('',(-11.63575178736,108.86696113574,
    11.675528807609));
#181 = CARTESIAN_POINT('',(3.977702032627E-02,-108.9465151765,
    11.675528807687));
#182 = CARTESIAN_POINT('',(3.977702032636E-02,108.86696113574,
    11.675528807687));
#183 = CARTESIAN_POINT('',(11.715305828013,-108.9465151765,
    11.675528807765));
#184 = CARTESIAN_POINT('',(11.715305828013,108.86696113574,
    11.675528807765));
#185 = CARTESIAN_POINT('',(11.715305828091,-108.9465151765,
    7.834461393601E-11));
#186 = CARTESIAN_POINT('',(11.715305828091,108.86696113574,
    7.833063362844E-11));
#187 = ADVANCED_FACE('',(#188),#194,.F.);
#188 = FACE_BOUND('',#189,.F.);
#189 = EDGE_LOOP('',(#190,#191,#192,#193));
#190 = ORIENTED_EDGE('',*,*,#105,.T.);
#191 = ORIENTED_EDGE('',*,*,#148,.T.);
#192 = ORIENTED_EDGE('',*,*,#55,.F.);
#193 = ORIENTED_EDGE('',*,*,#154,.F.);
#194 = ( BOUNDED_SURFACE() B_SPLINE_SURFACE(2,1,(
    (#195,#196)
    ,(#197,#198)
    ,(#199,#200)
    ,(#201,#202)
,(#203,#204
    )),.UNSPECIFIED.,.F.,.F.,.F.) B_SPLINE_SURFACE_WITH_KNOTS((3,2,3),(2
    ,2),(0.,1.570796326795,3.14159265359),(-2.9,165.),
.PIECEWISE_BEZIER_KNOTS.) GEOMETRIC_REPRESENTATION_ITEM() 
RATIONAL_B_SPLINE_SURFACE((
    (1.,1.)
    ,(0.707106781187,0.707106781187)
    ,(1.,1.)
    ,(0.707106781187,0.707106781187)
,(1.,1.))) REPRESENTATION_ITEM('') SURFACE() );
#195 = CARTESIAN_POINT('',(-10.33847080865,-108.9465151765,
    -6.9494926824E-11));
#196 = CARTESIAN_POINT('',(-10.33847080865,108.86696113574,
    -6.950890713158E-11));
#197 = CARTESIAN_POINT('',(-10.33847080872,-108.9465151765,
    10.378247828985));
#198 = CARTESIAN_POINT('',(-10.33847080872,108.86696113574,
    10.378247828985));
#199 = CARTESIAN_POINT('',(3.977702033497E-02,-108.9465151765,
    10.378247829055));
#200 = CARTESIAN_POINT('',(3.977702033507E-02,108.86696113574,
    10.378247829055));
#201 = CARTESIAN_POINT('',(10.41802484939,-108.9465151765,
    10.378247829125));
#202 = CARTESIAN_POINT('',(10.41802484939,108.86696113574,
    10.378247829125));
#203 = CARTESIAN_POINT('',(10.418024849459,-108.9465151765,
    6.96418600719E-11));
#204 = CARTESIAN_POINT('',(10.41802484946,108.86696113574,
    6.962787976432E-11));
#205 = ( GEOMETRIC_REPRESENTATION_CONTEXT(3) 
GLOBAL_UNCERTAINTY_ASSIGNED_CONTEXT((#209)) GLOBAL_UNIT_ASSIGNED_CONTEXT
((#206,#207,#208)) REPRESENTATION_CONTEXT('Context #1',
  '3D Context with UNIT and UNCERTAINTY') );
#206 = ( LENGTH_UNIT() NAMED_UNIT(*) SI_UNIT(.MILLI.,.METRE.) );
#207 = ( NAMED_UNIT(*) PLANE_ANGLE_UNIT() SI_UNIT($,.RADIAN.) );
#208 = ( NAMED_UNIT(*) SI_UNIT($,.STERADIAN.) SOLID_ANGLE_UNIT() );
#209 = UNCERTAINTY_MEASURE_WITH_UNIT(LENGTH_MEASURE(1.E-07),#206,
  'distance_accuracy_value','confusion accuracy');
#210 = PRODUCT_RELATED_PRODUCT_CATEGORY('part',$,(#7));
ENDSEC;
END-ISO-10303-21;
