ISO-10303-21;
HEADER;
FILE_DESCRIPTION(('FreeCAD Model'),'2;1');
FILE_NAME('Open CASCADE Shape Model','2025-04-26T20:49:53',('FreeCAD'),(
    'FreeCAD'),'Open CASCADE STEP processor 7.6','FreeCAD','Unknown');
FILE_SCHEMA(('AUTOMOTIVE_DESIGN { 1 0 10303 214 1 1 1 1 }'));
ENDSEC;
DATA;
#1 = APPLICATION_PROTOCOL_DEFINITION('international standard',
  'automotive_design',2000,#2);
#2 = APPLICATION_CONTEXT(
  'core data for automotive mechanical design processes');
#3 = SHAPE_DEFINITION_REPRESENTATION(#4,#10);
#4 = PRODUCT_DEFINITION_SHAPE('','',#5);
#5 = PRODUCT_DEFINITION('design','',#6,#9);
#6 = PRODUCT_DEFINITION_FORMATION('','',#7);
#7 = PRODUCT('Open CASCADE STEP translator 7.6 1',
  'Open CASCADE STEP translator 7.6 1','',(#8));
#8 = PRODUCT_CONTEXT('',#2,'mechanical');
#9 = PRODUCT_DEFINITION_CONTEXT('part definition',#2,'design');
#10 = ADVANCED_BREP_SHAPE_REPRESENTATION('',(#11,#15),#229);
#11 = AXIS2_PLACEMENT_3D('',#12,#13,#14);
#12 = CARTESIAN_POINT('',(0.,0.,0.));
#13 = DIRECTION('',(0.,0.,1.));
#14 = DIRECTION('',(1.,0.,-0.));
#15 = MANIFOLD_SOLID_BREP('',#16);
#16 = CLOSED_SHELL('',(#17,#57,#97,#133,#169,#185,#199,#215));
#17 = ADVANCED_FACE('',(#18),#50,.F.);
#18 = FACE_BOUND('',#19,.F.);
#19 = EDGE_LOOP('',(#20,#29,#37,#44));
#20 = ORIENTED_EDGE('',*,*,#21,.T.);
#21 = EDGE_CURVE('',#22,#24,#26,.T.);
#22 = VERTEX_POINT('',#23);
#23 = CARTESIAN_POINT('',(-660.8756863442,-10.82395263784,
    309.41980539556));
#24 = VERTEX_POINT('',#25);
#25 = CARTESIAN_POINT('',(-659.7584124409,-10.82395263784,
    311.67053907882));
#26 = B_SPLINE_CURVE_WITH_KNOTS('',1,(#27,#28),.UNSPECIFIED.,.F.,.F.,(2,
    2),(-8.078050787643,-5.078050787643),.PIECEWISE_BEZIER_KNOTS.);
#27 = CARTESIAN_POINT('',(-660.8756863442,-10.82395263784,
    309.41980539556));
#28 = CARTESIAN_POINT('',(-659.7584124409,-10.82395263784,
    311.67053907882));
#29 = ORIENTED_EDGE('',*,*,#30,.F.);
#30 = EDGE_CURVE('',#31,#24,#33,.T.);
#31 = VERTEX_POINT('',#32);
#32 = CARTESIAN_POINT('',(-659.7584124409,10.823952637848,
    311.67053907882));
#33 = ( BOUNDED_CURVE() B_SPLINE_CURVE(2,(#34,#35,#36),.UNSPECIFIED.,.F.
,.F.) B_SPLINE_CURVE_WITH_KNOTS((3,3),(2.665567681959,3.617617625221),
.PIECEWISE_BEZIER_KNOTS.) CURVE() GEOMETRIC_REPRESENTATION_ITEM() 
RATIONAL_B_SPLINE_CURVE((1.,0.88882349564,1.)) REPRESENTATION_ITEM('') 
  );
#34 = CARTESIAN_POINT('',(-659.7584124409,10.823952637849,
    311.67053907882));
#35 = CARTESIAN_POINT('',(-664.7569254725,-5.828491550988E-14,
    314.1518224962));
#36 = CARTESIAN_POINT('',(-659.7584124409,-10.82395263784,
    311.67053907882));
#37 = ORIENTED_EDGE('',*,*,#38,.T.);
#38 = EDGE_CURVE('',#31,#39,#41,.T.);
#39 = VERTEX_POINT('',#40);
#40 = CARTESIAN_POINT('',(-660.8756863442,10.823952637848,
    309.41980539556));
#41 = B_SPLINE_CURVE_WITH_KNOTS('',1,(#42,#43),.UNSPECIFIED.,.F.,.F.,(2,
    2),(0.,3.),.PIECEWISE_BEZIER_KNOTS.);
#42 = CARTESIAN_POINT('',(-659.7584124409,10.823952637848,
    311.67053907882));
#43 = CARTESIAN_POINT('',(-660.8756863442,10.823952637848,
    309.41980539556));
#44 = ORIENTED_EDGE('',*,*,#45,.T.);
#45 = EDGE_CURVE('',#39,#22,#46,.T.);
#46 = ( BOUNDED_CURVE() B_SPLINE_CURVE(2,(#47,#48,#49),.UNSPECIFIED.,.F.
,.F.) B_SPLINE_CURVE_WITH_KNOTS((3,3),(2.665567681959,3.617617625221),
.PIECEWISE_BEZIER_KNOTS.) CURVE() GEOMETRIC_REPRESENTATION_ITEM() 
RATIONAL_B_SPLINE_CURVE((1.,0.88882349564,1.)) REPRESENTATION_ITEM('') 
  );
#47 = CARTESIAN_POINT('',(-660.8756863442,10.823952637849,
    309.41980539556));
#48 = CARTESIAN_POINT('',(-665.8741993757,-7.59597498214E-14,
    311.90108881295));
#49 = CARTESIAN_POINT('',(-660.8756863442,-10.82395263784,
    309.41980539556));
#50 = ( BOUNDED_SURFACE() B_SPLINE_SURFACE(2,1,(
    (#51,#52)
    ,(#53,#54)
,(#55,#56
  )),.UNSPECIFIED.,.F.,.F.,.F.) B_SPLINE_SURFACE_WITH_KNOTS((3,3),(2,2),
  (5.807160335549,6.75921027881),(5.078050787642,8.078050787643),
.PIECEWISE_BEZIER_KNOTS.) GEOMETRIC_REPRESENTATION_ITEM() 
RATIONAL_B_SPLINE_SURFACE((
    (1.,1.)
    ,(0.88882349564,0.88882349564)
,(1.,1.))) REPRESENTATION_ITEM('') SURFACE() );
#51 = CARTESIAN_POINT('',(-659.7584124409,-10.82395263784,
    311.67053907882));
#52 = CARTESIAN_POINT('',(-660.8756863442,-10.82395263784,
    309.41980539556));
#53 = CARTESIAN_POINT('',(-664.7569254725,-2.679367427035E-13,
    314.1518224962));
#54 = CARTESIAN_POINT('',(-665.8741993757,-2.620085133386E-13,
    311.90108881295));
#55 = CARTESIAN_POINT('',(-659.7584124409,10.823952637849,
    311.67053907882));
#56 = CARTESIAN_POINT('',(-660.8756863442,10.823952637849,
    309.41980539556));
#57 = ADVANCED_FACE('',(#58),#90,.T.);
#58 = FACE_BOUND('',#59,.T.);
#59 = EDGE_LOOP('',(#60,#70,#77,#85));
#60 = ORIENTED_EDGE('',*,*,#61,.T.);
#61 = EDGE_CURVE('',#62,#64,#66,.T.);
#62 = VERTEX_POINT('',#63);
#63 = CARTESIAN_POINT('',(-669.5130759204,-11.58091682622,
    316.51279608227));
#64 = VERTEX_POINT('',#65);
#65 = CARTESIAN_POINT('',(-669.5130759204,11.580916826224,
    316.51279608227));
#66 = ( BOUNDED_CURVE() B_SPLINE_CURVE(2,(#67,#68,#69),.UNSPECIFIED.,.F.
,.F.) B_SPLINE_CURVE_WITH_KNOTS((3,3),(2.79319517804,3.48999012914),
.PIECEWISE_BEZIER_KNOTS.) CURVE() GEOMETRIC_REPRESENTATION_ITEM() 
RATIONAL_B_SPLINE_CURVE((1.,0.939921008538,1.)) REPRESENTATION_ITEM('') 
  );
#67 = CARTESIAN_POINT('',(-669.5130759204,-11.58091682622,
    316.51279608227));
#68 = CARTESIAN_POINT('',(-673.2807489125,-8.169835499751E-15,
    318.38308519796));
#69 = CARTESIAN_POINT('',(-669.5130759204,11.580916826225,
    316.51279608227));
#70 = ORIENTED_EDGE('',*,*,#71,.T.);
#71 = EDGE_CURVE('',#64,#72,#74,.T.);
#72 = VERTEX_POINT('',#73);
#73 = CARTESIAN_POINT('',(-670.6303498237,11.580916826224,
    314.26206239901));
#74 = B_SPLINE_CURVE_WITH_KNOTS('',1,(#75,#76),.UNSPECIFIED.,.F.,.F.,(2,
    2),(5.078050787643,8.078050787643),.PIECEWISE_BEZIER_KNOTS.);
#75 = CARTESIAN_POINT('',(-669.5130759204,11.580916826224,
    316.51279608227));
#76 = CARTESIAN_POINT('',(-670.6303498237,11.580916826224,
    314.26206239901));
#77 = ORIENTED_EDGE('',*,*,#78,.F.);
#78 = EDGE_CURVE('',#79,#72,#81,.T.);
#79 = VERTEX_POINT('',#80);
#80 = CARTESIAN_POINT('',(-670.6303498237,-11.58091682622,
    314.26206239901));
#81 = ( BOUNDED_CURVE() B_SPLINE_CURVE(2,(#82,#83,#84),.UNSPECIFIED.,.F.
,.F.) B_SPLINE_CURVE_WITH_KNOTS((3,3),(2.79319517804,3.48999012914),
.PIECEWISE_BEZIER_KNOTS.) CURVE() GEOMETRIC_REPRESENTATION_ITEM() 
RATIONAL_B_SPLINE_CURVE((1.,0.939921008538,1.)) REPRESENTATION_ITEM('') 
  );
#82 = CARTESIAN_POINT('',(-670.6303498236,-11.58091682622,
    314.26206239901));
#83 = CARTESIAN_POINT('',(-674.3980228158,-6.193755386555E-15,
    316.1323515147));
#84 = CARTESIAN_POINT('',(-670.6303498237,11.580916826225,
    314.26206239901));
#85 = ORIENTED_EDGE('',*,*,#86,.T.);
#86 = EDGE_CURVE('',#79,#62,#87,.T.);
#87 = B_SPLINE_CURVE_WITH_KNOTS('',1,(#88,#89),.UNSPECIFIED.,.F.,.F.,(2,
    2),(-8.078050787643,-5.078050787643),.PIECEWISE_BEZIER_KNOTS.);
#88 = CARTESIAN_POINT('',(-670.6303498237,-11.58091682622,
    314.26206239901));
#89 = CARTESIAN_POINT('',(-669.5130759204,-11.58091682622,
    316.51279608227));
#90 = ( BOUNDED_SURFACE() B_SPLINE_SURFACE(2,1,(
    (#91,#92)
    ,(#93,#94)
,(#95,#96
  )),.UNSPECIFIED.,.F.,.F.,.F.) B_SPLINE_SURFACE_WITH_KNOTS((3,3),(2,2),
  (5.934787831629,6.63158278273),(5.078050787642,8.078050787643),
.PIECEWISE_BEZIER_KNOTS.) GEOMETRIC_REPRESENTATION_ITEM() 
RATIONAL_B_SPLINE_SURFACE((
    (1.,1.)
    ,(0.939921008538,0.939921008538)
,(1.,1.))) REPRESENTATION_ITEM('') SURFACE() );
#91 = CARTESIAN_POINT('',(-669.5130759204,-11.58091682622,
    316.51279608227));
#92 = CARTESIAN_POINT('',(-670.6303498237,-11.58091682622,
    314.26206239901));
#93 = CARTESIAN_POINT('',(-673.2807489125,-6.462464444871E-14,
    318.38308519796));
#94 = CARTESIAN_POINT('',(-674.3980228158,-5.869641508376E-14,
    316.1323515147));
#95 = CARTESIAN_POINT('',(-669.5130759204,11.580916826225,
    316.51279608227));
#96 = CARTESIAN_POINT('',(-670.6303498237,11.580916826225,
    314.26206239901));
#97 = ADVANCED_FACE('',(#98),#128,.T.);
#98 = FACE_BOUND('',#99,.T.);
#99 = EDGE_LOOP('',(#100,#101,#108,#114,#115,#123));
#100 = ORIENTED_EDGE('',*,*,#30,.F.);
#101 = ORIENTED_EDGE('',*,*,#102,.F.);
#102 = EDGE_CURVE('',#103,#31,#105,.T.);
#103 = VERTEX_POINT('',#104);
#104 = CARTESIAN_POINT('',(-665.5318822397,13.52684984316,
    314.53651437627));
#105 = B_SPLINE_CURVE_WITH_KNOTS('',1,(#106,#107),.UNSPECIFIED.,.F.,.F.,
  (2,2),(-44.2279889986,-35.88333243842),.PIECEWISE_BEZIER_KNOTS.);
#106 = CARTESIAN_POINT('',(-665.5318822397,13.526849843159,
    314.53651437627));
#107 = CARTESIAN_POINT('',(-659.7584124409,10.823952637848,
    311.67053907882));
#108 = ORIENTED_EDGE('',*,*,#109,.T.);
#109 = EDGE_CURVE('',#103,#64,#110,.T.);
#110 = ( BOUNDED_CURVE() B_SPLINE_CURVE(2,(#111,#112,#113),
.UNSPECIFIED.,.F.,.F.) B_SPLINE_CURVE_WITH_KNOTS((3,3),(1.173733921966,
2.793195178039),.PIECEWISE_BEZIER_KNOTS.) CURVE() 
GEOMETRIC_REPRESENTATION_ITEM() RATIONAL_B_SPLINE_CURVE((1.,
0.689693510592,1.)) REPRESENTATION_ITEM('') );
#111 = CARTESIAN_POINT('',(-665.5318822397,13.526849843159,
    314.53651437627));
#112 = CARTESIAN_POINT('',(-668.4374544951,14.887117308429,
    315.97885296974));
#113 = CARTESIAN_POINT('',(-669.5130759204,11.580916826224,
    316.51279608227));
#114 = ORIENTED_EDGE('',*,*,#61,.F.);
#115 = ORIENTED_EDGE('',*,*,#116,.T.);
#116 = EDGE_CURVE('',#62,#117,#119,.T.);
#117 = VERTEX_POINT('',#118);
#118 = CARTESIAN_POINT('',(-665.5318822397,-13.52684984316,
    314.53651437627));
#119 = ( BOUNDED_CURVE() B_SPLINE_CURVE(2,(#120,#121,#122),
.UNSPECIFIED.,.F.,.F.) B_SPLINE_CURVE_WITH_KNOTS((3,3),(3.48999012914,
5.109451385214),.PIECEWISE_BEZIER_KNOTS.) CURVE() 
GEOMETRIC_REPRESENTATION_ITEM() RATIONAL_B_SPLINE_CURVE((1.,
0.689693510592,1.)) REPRESENTATION_ITEM('') );
#120 = CARTESIAN_POINT('',(-669.5130759204,-11.58091682622,
    316.51279608227));
#121 = CARTESIAN_POINT('',(-668.4374544951,-14.88711730842,
    315.97885296974));
#122 = CARTESIAN_POINT('',(-665.5318822397,-13.52684984315,
    314.53651437627));
#123 = ORIENTED_EDGE('',*,*,#124,.F.);
#124 = EDGE_CURVE('',#24,#117,#125,.T.);
#125 = B_SPLINE_CURVE_WITH_KNOTS('',1,(#126,#127),.UNSPECIFIED.,.F.,.F.,
  (2,2),(35.883332438417,44.227988998608),.PIECEWISE_BEZIER_KNOTS.);
#126 = CARTESIAN_POINT('',(-659.7584124409,-10.82395263784,
    311.67053907882));
#127 = CARTESIAN_POINT('',(-665.5318822397,-13.52684984315,
    314.53651437627));
#128 = B_SPLINE_SURFACE_WITH_KNOTS('',1,1,(
    (#129,#130)
    ,(#131,#132
    )),.UNSPECIFIED.,.F.,.F.,.F.,(2,2),(2,2),(84.439358208192,
    117.36097421321),(-6.615847011354,8.819330411635),
  .PIECEWISE_BEZIER_KNOTS.);
#129 = CARTESIAN_POINT('',(-671.3385703519,13.787506453703,
    317.41897938774));
#130 = CARTESIAN_POINT('',(-659.7584124409,13.787506453703,
    311.67053907882));
#131 = CARTESIAN_POINT('',(-671.3385703519,-13.7875064537,
    317.41897938774));
#132 = CARTESIAN_POINT('',(-659.7584124409,-13.7875064537,
    311.67053907882));
#133 = ADVANCED_FACE('',(#134),#164,.F.);
#134 = FACE_BOUND('',#135,.T.);
#135 = EDGE_LOOP('',(#136,#137,#145,#150,#151,#158));
#136 = ORIENTED_EDGE('',*,*,#78,.T.);
#137 = ORIENTED_EDGE('',*,*,#138,.T.);
#138 = EDGE_CURVE('',#72,#139,#141,.T.);
#139 = VERTEX_POINT('',#140);
#140 = CARTESIAN_POINT('',(-666.6491561429,13.52684984316,
    312.28578069301));
#141 = ( BOUNDED_CURVE() B_SPLINE_CURVE(2,(#142,#143,#144),
.UNSPECIFIED.,.F.,.F.) B_SPLINE_CURVE_WITH_KNOTS((3,3),(3.48999012914,
5.109451385213),.PIECEWISE_BEZIER_KNOTS.) CURVE() 
GEOMETRIC_REPRESENTATION_ITEM() RATIONAL_B_SPLINE_CURVE((1.,
0.689693510592,1.)) REPRESENTATION_ITEM('') );
#142 = CARTESIAN_POINT('',(-670.6303498236,11.580916826224,
    314.26206239901));
#143 = CARTESIAN_POINT('',(-669.5547283983,14.887117308428,
    313.72811928648));
#144 = CARTESIAN_POINT('',(-666.6491561429,13.52684984316,
    312.28578069301));
#145 = ORIENTED_EDGE('',*,*,#146,.T.);
#146 = EDGE_CURVE('',#139,#39,#147,.T.);
#147 = B_SPLINE_CURVE_WITH_KNOTS('',1,(#148,#149),.UNSPECIFIED.,.F.,.F.,
  (2,2),(-44.2279889986,-35.88333243842),.PIECEWISE_BEZIER_KNOTS.);
#148 = CARTESIAN_POINT('',(-666.6491561429,13.526849843159,
    312.28578069301));
#149 = CARTESIAN_POINT('',(-660.8756863442,10.823952637848,
    309.41980539556));
#150 = ORIENTED_EDGE('',*,*,#45,.T.);
#151 = ORIENTED_EDGE('',*,*,#152,.T.);
#152 = EDGE_CURVE('',#22,#153,#155,.T.);
#153 = VERTEX_POINT('',#154);
#154 = CARTESIAN_POINT('',(-666.6491561429,-13.52684984316,
    312.28578069301));
#155 = B_SPLINE_CURVE_WITH_KNOTS('',1,(#156,#157),.UNSPECIFIED.,.F.,.F.,
  (2,2),(35.883332438417,44.227988998608),.PIECEWISE_BEZIER_KNOTS.);
#156 = CARTESIAN_POINT('',(-660.8756863442,-10.82395263784,
    309.41980539556));
#157 = CARTESIAN_POINT('',(-666.6491561429,-13.52684984315,
    312.28578069301));
#158 = ORIENTED_EDGE('',*,*,#159,.T.);
#159 = EDGE_CURVE('',#153,#79,#160,.T.);
#160 = ( BOUNDED_CURVE() B_SPLINE_CURVE(2,(#161,#162,#163),
.UNSPECIFIED.,.F.,.F.) B_SPLINE_CURVE_WITH_KNOTS((3,3),(1.173733921966,
2.79319517804),.PIECEWISE_BEZIER_KNOTS.) CURVE() 
GEOMETRIC_REPRESENTATION_ITEM() RATIONAL_B_SPLINE_CURVE((1.,
0.689693510592,1.)) REPRESENTATION_ITEM('') );
#161 = CARTESIAN_POINT('',(-666.6491561429,-13.52684984316,
    312.28578069301));
#162 = CARTESIAN_POINT('',(-669.5547283983,-14.88711730842,
    313.72811928648));
#163 = CARTESIAN_POINT('',(-670.6303498236,-11.58091682622,
    314.26206239901));
#164 = B_SPLINE_SURFACE_WITH_KNOTS('',1,1,(
    (#165,#166)
    ,(#167,#168
    )),.UNSPECIFIED.,.F.,.F.,.F.,(2,2),(2,2),(84.439358208192,
    117.36097421321),(-6.615847011353,8.819330411636),
  .PIECEWISE_BEZIER_KNOTS.);
#165 = CARTESIAN_POINT('',(-672.4558442551,13.787506453703,
    315.16824570449));
#166 = CARTESIAN_POINT('',(-660.8756863442,13.787506453703,
    309.41980539556));
#167 = CARTESIAN_POINT('',(-672.4558442551,-13.7875064537,
    315.16824570449));
#168 = CARTESIAN_POINT('',(-660.8756863442,-13.7875064537,
    309.41980539556));
#169 = ADVANCED_FACE('',(#170),#180,.F.);
#170 = FACE_BOUND('',#171,.T.);
#171 = EDGE_LOOP('',(#172,#173,#178,#179));
#172 = ORIENTED_EDGE('',*,*,#124,.T.);
#173 = ORIENTED_EDGE('',*,*,#174,.T.);
#174 = EDGE_CURVE('',#117,#153,#175,.T.);
#175 = B_SPLINE_CURVE_WITH_KNOTS('',1,(#176,#177),.UNSPECIFIED.,.F.,.F.,
  (2,2),(-3.,-0.),.PIECEWISE_BEZIER_KNOTS.);
#176 = CARTESIAN_POINT('',(-665.5318822397,-13.52684984316,
    314.53651437627));
#177 = CARTESIAN_POINT('',(-666.6491561429,-13.52684984316,
    312.28578069301));
#178 = ORIENTED_EDGE('',*,*,#152,.F.);
#179 = ORIENTED_EDGE('',*,*,#21,.T.);
#180 = B_SPLINE_SURFACE_WITH_KNOTS('',1,1,(
    (#181,#182)
    ,(#183,#184
    )),.UNSPECIFIED.,.F.,.F.,.F.,(2,2),(2,2),(-2.310320592687,
    6.517953449979),(3.38103792689,9.645009751216),
  .PIECEWISE_BEZIER_KNOTS.);
#181 = CARTESIAN_POINT('',(-659.874703648,-10.44993492123,
    309.43028804503));
#182 = CARTESIAN_POINT('',(-659.6064187549,-11.31279726161,
    314.59856795311));
#183 = CARTESIAN_POINT('',(-666.8011498289,-13.03800521939,
    309.35775181872));
#184 = CARTESIAN_POINT('',(-666.5328649358,-13.90086755977,
    314.5260317268));
#185 = ADVANCED_FACE('',(#186),#192,.T.);
#186 = FACE_BOUND('',#187,.T.);
#187 = EDGE_LOOP('',(#188,#189,#190,#191));
#188 = ORIENTED_EDGE('',*,*,#159,.F.);
#189 = ORIENTED_EDGE('',*,*,#174,.F.);
#190 = ORIENTED_EDGE('',*,*,#116,.F.);
#191 = ORIENTED_EDGE('',*,*,#86,.F.);
#192 = ( BOUNDED_SURFACE() B_SPLINE_SURFACE(2,1,(
    (#193,#194)
    ,(#195,#196)
,(#197,#198
    )),.UNSPECIFIED.,.F.,.F.,.F.) B_SPLINE_SURFACE_WITH_KNOTS((3,3),(2,2
    ),(4.315326575556,5.934787831629),(5.078050787642,8.078050787642),
.PIECEWISE_BEZIER_KNOTS.) GEOMETRIC_REPRESENTATION_ITEM() 
RATIONAL_B_SPLINE_SURFACE((
    (1.,1.)
    ,(0.689693510592,0.689693510592)
,(1.,1.))) REPRESENTATION_ITEM('') SURFACE() );
#193 = CARTESIAN_POINT('',(-665.5318822397,-13.52684984315,
    314.53651437627));
#194 = CARTESIAN_POINT('',(-666.6491561429,-13.52684984315,
    312.28578069301));
#195 = CARTESIAN_POINT('',(-668.4374544951,-14.88711730842,
    315.97885296974));
#196 = CARTESIAN_POINT('',(-669.5547283983,-14.88711730842,
    313.72811928648));
#197 = CARTESIAN_POINT('',(-669.5130759204,-11.58091682622,
    316.51279608227));
#198 = CARTESIAN_POINT('',(-670.6303498237,-11.58091682622,
    314.26206239901));
#199 = ADVANCED_FACE('',(#200),#210,.F.);
#200 = FACE_BOUND('',#201,.T.);
#201 = EDGE_LOOP('',(#202,#203,#204,#205));
#202 = ORIENTED_EDGE('',*,*,#102,.T.);
#203 = ORIENTED_EDGE('',*,*,#38,.T.);
#204 = ORIENTED_EDGE('',*,*,#146,.F.);
#205 = ORIENTED_EDGE('',*,*,#206,.T.);
#206 = EDGE_CURVE('',#139,#103,#207,.T.);
#207 = B_SPLINE_CURVE_WITH_KNOTS('',1,(#208,#209),.UNSPECIFIED.,.F.,.F.,
  (2,2),(0.,3.),.PIECEWISE_BEZIER_KNOTS.);
#208 = CARTESIAN_POINT('',(-666.6491561429,13.52684984316,
    312.28578069301));
#209 = CARTESIAN_POINT('',(-665.5318822397,13.52684984316,
    314.53651437627));
#210 = B_SPLINE_SURFACE_WITH_KNOTS('',1,1,(
    (#211,#212)
    ,(#213,#214
    )),.UNSPECIFIED.,.F.,.F.,.F.,(2,2),(2,2),(-2.310320592684,
    6.517953449979),(-9.645009751216,-3.381037926892),
  .PIECEWISE_BEZIER_KNOTS.);
#211 = CARTESIAN_POINT('',(-659.6064187549,11.312797261612,
    314.59856795311));
#212 = CARTESIAN_POINT('',(-659.874703648,10.449934921232,
    309.43028804503));
#213 = CARTESIAN_POINT('',(-666.5328649358,13.900867559776,
    314.5260317268));
#214 = CARTESIAN_POINT('',(-666.8011498289,13.038005219395,
    309.35775181872));
#215 = ADVANCED_FACE('',(#216),#222,.T.);
#216 = FACE_BOUND('',#217,.T.);
#217 = EDGE_LOOP('',(#218,#219,#220,#221));
#218 = ORIENTED_EDGE('',*,*,#138,.F.);
#219 = ORIENTED_EDGE('',*,*,#71,.F.);
#220 = ORIENTED_EDGE('',*,*,#109,.F.);
#221 = ORIENTED_EDGE('',*,*,#206,.F.);
#222 = ( BOUNDED_SURFACE() B_SPLINE_SURFACE(2,1,(
    (#223,#224)
    ,(#225,#226)
,(#227,#228
    )),.UNSPECIFIED.,.F.,.F.,.F.) B_SPLINE_SURFACE_WITH_KNOTS((3,3),(2,2
    ),(0.34839747555,1.967858731624),(5.078050787642,8.078050787642),
.PIECEWISE_BEZIER_KNOTS.) GEOMETRIC_REPRESENTATION_ITEM() 
RATIONAL_B_SPLINE_SURFACE((
    (1.,1.)
    ,(0.689693510592,0.689693510592)
,(1.,1.))) REPRESENTATION_ITEM('') SURFACE() );
#223 = CARTESIAN_POINT('',(-669.5130759204,11.580916826224,
    316.51279608227));
#224 = CARTESIAN_POINT('',(-670.6303498237,11.580916826224,
    314.26206239901));
#225 = CARTESIAN_POINT('',(-668.4374544951,14.887117308429,
    315.97885296974));
#226 = CARTESIAN_POINT('',(-669.5547283983,14.887117308429,
    313.72811928648));
#227 = CARTESIAN_POINT('',(-665.5318822397,13.52684984316,
    314.53651437627));
#228 = CARTESIAN_POINT('',(-666.6491561429,13.52684984316,
    312.28578069301));
#229 = ( GEOMETRIC_REPRESENTATION_CONTEXT(3) 
GLOBAL_UNCERTAINTY_ASSIGNED_CONTEXT((#233)) GLOBAL_UNIT_ASSIGNED_CONTEXT
((#230,#231,#232)) REPRESENTATION_CONTEXT('Context #1',
  '3D Context with UNIT and UNCERTAINTY') );
#230 = ( LENGTH_UNIT() NAMED_UNIT(*) SI_UNIT(.MILLI.,.METRE.) );
#231 = ( NAMED_UNIT(*) PLANE_ANGLE_UNIT() SI_UNIT($,.RADIAN.) );
#232 = ( NAMED_UNIT(*) SI_UNIT($,.STERADIAN.) SOLID_ANGLE_UNIT() );
#233 = UNCERTAINTY_MEASURE_WITH_UNIT(LENGTH_MEASURE(1.E-07),#230,
  'distance_accuracy_value','confusion accuracy');
#234 = PRODUCT_RELATED_PRODUCT_CATEGORY('part',$,(#7));
ENDSEC;
END-ISO-10303-21;
