ISO-10303-21;
HEADER;
FILE_DESCRIPTION(('FreeCAD Model'),'2;1');
FILE_NAME('Open CASCADE Shape Model','2025-04-26T18:59:19',('FreeCAD'),(
    'FreeCAD'),'Open CASCADE STEP processor 7.6','FreeCAD','Unknown');
FILE_SCHEMA(('AUTOMOTIVE_DESIGN { 1 0 10303 214 1 1 1 1 }'));
ENDSEC;
DATA;
#1 = APPLICATION_PROTOCOL_DEFINITION('international standard',
  'automotive_design',2000,#2);
#2 = APPLICATION_CONTEXT(
  'core data for automotive mechanical design processes');
#3 = SHAPE_DEFINITION_REPRESENTATION(#4,#10);
#4 = PRODUCT_DEFINITION_SHAPE('','',#5);
#5 = PRODUCT_DEFINITION('design','',#6,#9);
#6 = PRODUCT_DEFINITION_FORMATION('','',#7);
#7 = PRODUCT('Open CASCADE STEP translator 7.6 1',
  'Open CASCADE STEP translator 7.6 1','',(#8));
#8 = PRODUCT_CONTEXT('',#2,'mechanical');
#9 = PRODUCT_DEFINITION_CONTEXT('part definition',#2,'design');
#10 = ADVANCED_BREP_SHAPE_REPRESENTATION('',(#11,#15),#105);
#11 = AXIS2_PLACEMENT_3D('',#12,#13,#14);
#12 = CARTESIAN_POINT('',(0.,0.,0.));
#13 = DIRECTION('',(0.,0.,1.));
#14 = DIRECTION('',(1.,0.,-0.));
#15 = MANIFOLD_SOLID_BREP('',#16);
#16 = CLOSED_SHELL('',(#17,#53,#85,#95));
#17 = ADVANCED_FACE('',(#18),#48,.T.);
#18 = FACE_BOUND('',#19,.T.);
#19 = EDGE_LOOP('',(#20,#29,#36,#43));
#20 = ORIENTED_EDGE('',*,*,#21,.F.);
#21 = EDGE_CURVE('',#22,#24,#26,.T.);
#22 = VERTEX_POINT('',#23);
#23 = CARTESIAN_POINT('',(1.362662806705,-19.07727927057,-46.6030663331)
  );
#24 = VERTEX_POINT('',#25);
#25 = CARTESIAN_POINT('',(1.362662806705,-19.07727927057,44.241120695159
    ));
#26 = B_SPLINE_CURVE_WITH_KNOTS('',1,(#27,#28),.UNSPECIFIED.,.F.,.F.,(2,
    2),(-50.00000000001,49.99999999999),.PIECEWISE_BEZIER_KNOTS.);
#27 = CARTESIAN_POINT('',(1.362662806705,-19.07727927057,-46.6030663331)
  );
#28 = CARTESIAN_POINT('',(1.362662806705,-19.07727927057,44.241120695159
    ));
#29 = ORIENTED_EDGE('',*,*,#30,.T.);
#30 = EDGE_CURVE('',#22,#31,#33,.T.);
#31 = VERTEX_POINT('',#32);
#32 = CARTESIAN_POINT('',(-1.362662804143,-19.07727927057,-46.6030663331
    ));
#33 = B_SPLINE_CURVE_WITH_KNOTS('',1,(#34,#35),.UNSPECIFIED.,.F.,.F.,(2,
    2),(-1.500000000004,1.499999999996),.PIECEWISE_BEZIER_KNOTS.);
#34 = CARTESIAN_POINT('',(1.362662806705,-19.07727927057,-46.6030663331)
  );
#35 = CARTESIAN_POINT('',(-1.362662804143,-19.07727927057,-46.6030663331
    ));
#36 = ORIENTED_EDGE('',*,*,#37,.T.);
#37 = EDGE_CURVE('',#31,#38,#40,.T.);
#38 = VERTEX_POINT('',#39);
#39 = CARTESIAN_POINT('',(-1.362662804143,-19.07727927057,
    44.241120695159));
#40 = B_SPLINE_CURVE_WITH_KNOTS('',1,(#41,#42),.UNSPECIFIED.,.F.,.F.,(2,
    2),(-50.00000000001,49.99999999999),.PIECEWISE_BEZIER_KNOTS.);
#41 = CARTESIAN_POINT('',(-1.362662804143,-19.07727927057,-46.6030663331
    ));
#42 = CARTESIAN_POINT('',(-1.362662804143,-19.07727927057,
    44.241120695159));
#43 = ORIENTED_EDGE('',*,*,#44,.F.);
#44 = EDGE_CURVE('',#24,#38,#45,.T.);
#45 = B_SPLINE_CURVE_WITH_KNOTS('',1,(#46,#47),.UNSPECIFIED.,.F.,.F.,(2,
    2),(-1.500000000004,1.499999999996),.PIECEWISE_BEZIER_KNOTS.);
#46 = CARTESIAN_POINT('',(1.362662806705,-19.07727927057,44.241120695159
    ));
#47 = CARTESIAN_POINT('',(-1.362662804143,-19.07727927057,
    44.241120695159));
#48 = B_SPLINE_SURFACE_WITH_KNOTS('',1,1,(
    (#49,#50)
    ,(#51,#52
    )),.UNSPECIFIED.,.F.,.F.,.F.,(2,2),(2,2),(0.,3.),(-50.00000000001,
    49.99999999999),.PIECEWISE_BEZIER_KNOTS.);
#49 = CARTESIAN_POINT('',(1.362662806705,-19.07727927057,-46.6030663331)
  );
#50 = CARTESIAN_POINT('',(1.362662806705,-19.07727927057,44.241120695159
    ));
#51 = CARTESIAN_POINT('',(-1.362662804143,-19.07727927057,-46.6030663331
    ));
#52 = CARTESIAN_POINT('',(-1.362662804143,-19.07727927057,
    44.241120695159));
#53 = ADVANCED_FACE('',(#54),#74,.T.);
#54 = FACE_BOUND('',#55,.T.);
#55 = EDGE_LOOP('',(#56,#57,#65,#66));
#56 = ORIENTED_EDGE('',*,*,#37,.F.);
#57 = ORIENTED_EDGE('',*,*,#58,.T.);
#58 = EDGE_CURVE('',#31,#22,#59,.T.);
#59 = ( BOUNDED_CURVE() B_SPLINE_CURVE(2,(#60,#61,#62,#63,#64),
.UNSPECIFIED.,.F.,.F.) B_SPLINE_CURVE_WITH_KNOTS((3,2,3),(2.214297435587
,4.712388980383,7.21048052518),.PIECEWISE_BEZIER_KNOTS.) CURVE() 
GEOMETRIC_REPRESENTATION_ITEM() RATIONAL_B_SPLINE_CURVE((1.,
0.316227766017,1.,0.316227766017,1.)) REPRESENTATION_ITEM('') );
#60 = CARTESIAN_POINT('',(-1.362662804144,-19.07727927057,-46.6030663331
    ));
#61 = CARTESIAN_POINT('',(-6.813314025845,-23.16526768683,-46.6030663331
    ));
#62 = CARTESIAN_POINT('',(1.27448497366E-09,-23.16526768684,
    -46.6030663331));
#63 = CARTESIAN_POINT('',(6.813314028394,-23.16526768685,-46.6030663331)
  );
#64 = CARTESIAN_POINT('',(1.362662806704,-19.07727927057,-46.6030663331)
  );
#65 = ORIENTED_EDGE('',*,*,#21,.T.);
#66 = ORIENTED_EDGE('',*,*,#67,.F.);
#67 = EDGE_CURVE('',#38,#24,#68,.T.);
#68 = ( BOUNDED_CURVE() B_SPLINE_CURVE(2,(#69,#70,#71,#72,#73),
.UNSPECIFIED.,.F.,.F.) B_SPLINE_CURVE_WITH_KNOTS((3,2,3),(2.214297435587
,4.712388980383,7.21048052518),.PIECEWISE_BEZIER_KNOTS.) CURVE() 
GEOMETRIC_REPRESENTATION_ITEM() RATIONAL_B_SPLINE_CURVE((1.,
0.316227766017,1.,0.316227766017,1.)) REPRESENTATION_ITEM('') );
#69 = CARTESIAN_POINT('',(-1.362662804144,-19.07727927057,
    44.241120695159));
#70 = CARTESIAN_POINT('',(-6.813314025845,-23.16526768683,
    44.241120695159));
#71 = CARTESIAN_POINT('',(1.27448497366E-09,-23.16526768684,
    44.241120695159));
#72 = CARTESIAN_POINT('',(6.813314028394,-23.16526768685,44.241120695159
    ));
#73 = CARTESIAN_POINT('',(1.362662806704,-19.07727927057,44.241120695159
    ));
#74 = ( BOUNDED_SURFACE() B_SPLINE_SURFACE(2,1,(
    (#75,#76)
    ,(#77,#78)
    ,(#79,#80)
    ,(#81,#82)
,(#83,#84
    )),.UNSPECIFIED.,.F.,.F.,.F.) B_SPLINE_SURFACE_WITH_KNOTS((3,2,3),(2
    ,2),(0.,2.498091544797,4.996183089593),(-50.00000000001,
    49.99999999999),.PIECEWISE_BEZIER_KNOTS.) 
GEOMETRIC_REPRESENTATION_ITEM() RATIONAL_B_SPLINE_SURFACE((
    (1.,1.)
    ,(0.316227766017,0.316227766017)
    ,(1.,1.)
    ,(0.316227766017,0.316227766017)
,(1.,1.))) REPRESENTATION_ITEM('') SURFACE() );
#75 = CARTESIAN_POINT('',(-1.362662804147,-19.07727927057,-46.6030663331
    ));
#76 = CARTESIAN_POINT('',(-1.362662804147,-19.07727927057,
    44.241120695159));
#77 = CARTESIAN_POINT('',(-6.813314025843,-23.16526768684,-46.6030663331
    ));
#78 = CARTESIAN_POINT('',(-6.813314025843,-23.16526768684,
    44.241120695159));
#79 = CARTESIAN_POINT('',(1.277337433813E-09,-23.16526768684,
    -46.6030663331));
#80 = CARTESIAN_POINT('',(1.277337433813E-09,-23.16526768684,
    44.241120695159));
#81 = CARTESIAN_POINT('',(6.813314028397,-23.16526768684,-46.6030663331)
  );
#82 = CARTESIAN_POINT('',(6.813314028397,-23.16526768684,44.241120695159
    ));
#83 = CARTESIAN_POINT('',(1.362662806701,-19.07727927057,-46.6030663331)
  );
#84 = CARTESIAN_POINT('',(1.362662806701,-19.07727927057,44.241120695159
    ));
#85 = ADVANCED_FACE('',(#86),#90,.F.);
#86 = FACE_BOUND('',#87,.T.);
#87 = EDGE_LOOP('',(#88,#89));
#88 = ORIENTED_EDGE('',*,*,#58,.F.);
#89 = ORIENTED_EDGE('',*,*,#30,.F.);
#90 = B_SPLINE_SURFACE_WITH_KNOTS('',1,1,(
    (#91,#92)
    ,(#93,#94
    )),.UNSPECIFIED.,.F.,.F.,.F.,(2,2),(2,2),(-2.000000000002,2.5),(-2.5
    ,2.5),.PIECEWISE_BEZIER_KNOTS.);
#91 = CARTESIAN_POINT('',(-2.271104674429,-19.07727927057,-46.6030663331
    ));
#92 = CARTESIAN_POINT('',(2.271104676984,-19.07727927057,-46.6030663331)
  );
#93 = CARTESIAN_POINT('',(-2.271104674429,-23.16526768684,-46.6030663331
    ));
#94 = CARTESIAN_POINT('',(2.271104676984,-23.16526768684,-46.6030663331)
  );
#95 = ADVANCED_FACE('',(#96),#100,.T.);
#96 = FACE_BOUND('',#97,.T.);
#97 = EDGE_LOOP('',(#98,#99));
#98 = ORIENTED_EDGE('',*,*,#44,.T.);
#99 = ORIENTED_EDGE('',*,*,#67,.T.);
#100 = B_SPLINE_SURFACE_WITH_KNOTS('',1,1,(
    (#101,#102)
    ,(#103,#104
    )),.UNSPECIFIED.,.F.,.F.,.F.,(2,2),(2,2),(-2.000000000002,2.5),(-2.5
    ,2.5),.PIECEWISE_BEZIER_KNOTS.);
#101 = CARTESIAN_POINT('',(-2.271104674429,-19.07727927057,
    44.241120695159));
#102 = CARTESIAN_POINT('',(2.271104676984,-19.07727927057,
    44.241120695159));
#103 = CARTESIAN_POINT('',(-2.271104674429,-23.16526768684,
    44.241120695159));
#104 = CARTESIAN_POINT('',(2.271104676984,-23.16526768684,
    44.241120695159));
#105 = ( GEOMETRIC_REPRESENTATION_CONTEXT(3) 
GLOBAL_UNCERTAINTY_ASSIGNED_CONTEXT((#109)) GLOBAL_UNIT_ASSIGNED_CONTEXT
((#106,#107,#108)) REPRESENTATION_CONTEXT('Context #1',
  '3D Context with UNIT and UNCERTAINTY') );
#106 = ( LENGTH_UNIT() NAMED_UNIT(*) SI_UNIT(.MILLI.,.METRE.) );
#107 = ( NAMED_UNIT(*) PLANE_ANGLE_UNIT() SI_UNIT($,.RADIAN.) );
#108 = ( NAMED_UNIT(*) SI_UNIT($,.STERADIAN.) SOLID_ANGLE_UNIT() );
#109 = UNCERTAINTY_MEASURE_WITH_UNIT(LENGTH_MEASURE(1.E-07),#106,
  'distance_accuracy_value','confusion accuracy');
#110 = PRODUCT_RELATED_PRODUCT_CATEGORY('part',$,(#7));
ENDSEC;
END-ISO-10303-21;
