ISO-10303-21;
HEADER;
FILE_DESCRIPTION(('FreeCAD Model'),'2;1');
FILE_NAME('Open CASCADE Shape Model','2025-04-26T09:27:27',('FreeCAD'),(
    'FreeCAD'),'Open CASCADE STEP processor 7.6','FreeCAD','Unknown');
FILE_SCHEMA(('AUTOMOTIVE_DESIGN { 1 0 10303 214 1 1 1 1 }'));
ENDSEC;
DATA;
#1 = APPLICATION_PROTOCOL_DEFINITION('international standard',
  'automotive_design',2000,#2);
#2 = APPLICATION_CONTEXT(
  'core data for automotive mechanical design processes');
#3 = SHAPE_DEFINITION_REPRESENTATION(#4,#10);
#4 = PRODUCT_DEFINITION_SHAPE('','',#5);
#5 = PRODUCT_DEFINITION('design','',#6,#9);
#6 = PRODUCT_DEFINITION_FORMATION('','',#7);
#7 = PRODUCT('Open CASCADE STEP translator 7.6 1',
  'Open CASCADE STEP translator 7.6 1','',(#8));
#8 = PRODUCT_CONTEXT('',#2,'mechanical');
#9 = PRODUCT_DEFINITION_CONTEXT('part definition',#2,'design');
#10 = ADVANCED_BREP_SHAPE_REPRESENTATION('',(#11,#15),#211);
#11 = AXIS2_PLACEMENT_3D('',#12,#13,#14);
#12 = CARTESIAN_POINT('',(0.,0.,0.));
#13 = DIRECTION('',(0.,0.,1.));
#14 = DIRECTION('',(1.,0.,-0.));
#15 = MANIFOLD_SOLID_BREP('',#16);
#16 = CLOSED_SHELL('',(#17,#65,#113,#141,#166,#176,#193));
#17 = ADVANCED_FACE('',(#18),#54,.F.);
#18 = FACE_BOUND('',#19,.F.);
#19 = EDGE_LOOP('',(#20,#29,#39,#46));
#20 = ORIENTED_EDGE('',*,*,#21,.T.);
#21 = EDGE_CURVE('',#22,#24,#26,.T.);
#22 = VERTEX_POINT('',#23);
#23 = CARTESIAN_POINT('',(2.101223059587,0.,-11.85061648514));
#24 = VERTEX_POINT('',#25);
#25 = CARTESIAN_POINT('',(2.908393056793,0.,-8.681770318784));
#26 = B_SPLINE_CURVE_WITH_KNOTS('',1,(#27,#28),.UNSPECIFIED.,.F.,.F.,(2,
    2),(-3.76654979661,0.),.PIECEWISE_BEZIER_KNOTS.);
#27 = CARTESIAN_POINT('',(2.101223059587,0.,-11.85061648514));
#28 = CARTESIAN_POINT('',(2.908393056793,0.,-8.681770318784));
#29 = ORIENTED_EDGE('',*,*,#30,.T.);
#30 = EDGE_CURVE('',#24,#31,#33,.T.);
#31 = VERTEX_POINT('',#32);
#32 = CARTESIAN_POINT('',(-2.908393056793,3.561754247664E-16,
    -8.681770318784));
#33 = ( BOUNDED_CURVE() B_SPLINE_CURVE(2,(#34,#35,#36,#37,#38),
.UNSPECIFIED.,.F.,.F.) B_SPLINE_CURVE_WITH_KNOTS((3,2,3),(3.14159265359,
4.712388980385,6.28318530718),.PIECEWISE_BEZIER_KNOTS.) CURVE() 
GEOMETRIC_REPRESENTATION_ITEM() RATIONAL_B_SPLINE_CURVE((1.,
0.707106781187,1.,0.707106781187,1.)) REPRESENTATION_ITEM('') );
#34 = CARTESIAN_POINT('',(2.908393056793,3.561754247664E-16,
    -8.681770318784));
#35 = CARTESIAN_POINT('',(2.908393056793,-2.908393056793,-8.681770318784
    ));
#36 = CARTESIAN_POINT('',(1.287286676401E-15,-2.908393056793,
    -8.681770318784));
#37 = CARTESIAN_POINT('',(-2.908393056793,-2.908393056793,
    -8.681770318784));
#38 = CARTESIAN_POINT('',(-2.908393056793,-7.123508495327E-16,
    -8.681770318784));
#39 = ORIENTED_EDGE('',*,*,#40,.F.);
#40 = EDGE_CURVE('',#41,#31,#43,.T.);
#41 = VERTEX_POINT('',#42);
#42 = CARTESIAN_POINT('',(-2.101223059587,3.067505170941E-16,
    -11.85061648514));
#43 = B_SPLINE_CURVE_WITH_KNOTS('',1,(#44,#45),.UNSPECIFIED.,.F.,.F.,(2,
    2),(-3.76654979661,0.),.PIECEWISE_BEZIER_KNOTS.);
#44 = CARTESIAN_POINT('',(-2.101223059587,2.573256094218E-16,
    -11.85061648514));
#45 = CARTESIAN_POINT('',(-2.908393056793,3.561754247664E-16,
    -8.681770318784));
#46 = ORIENTED_EDGE('',*,*,#47,.F.);
#47 = EDGE_CURVE('',#22,#41,#48,.T.);
#48 = ( BOUNDED_CURVE() B_SPLINE_CURVE(2,(#49,#50,#51,#52,#53),
.UNSPECIFIED.,.F.,.F.) B_SPLINE_CURVE_WITH_KNOTS((3,2,3),(3.14159265359,
4.712388980385,6.28318530718),.PIECEWISE_BEZIER_KNOTS.) CURVE() 
GEOMETRIC_REPRESENTATION_ITEM() RATIONAL_B_SPLINE_CURVE((1.,
0.707106781187,1.,0.707106781187,1.)) REPRESENTATION_ITEM('') );
#49 = CARTESIAN_POINT('',(2.101223059587,2.573256094218E-16,
    -11.85061648514));
#50 = CARTESIAN_POINT('',(2.101223059587,-2.101223059587,-11.85061648514
    ));
#51 = CARTESIAN_POINT('',(1.139011953384E-15,-2.101223059587,
    -11.85061648514));
#52 = CARTESIAN_POINT('',(-2.101223059587,-2.101223059587,
    -11.85061648514));
#53 = CARTESIAN_POINT('',(-2.101223059587,-5.146512188435E-16,
    -11.85061648514));
#54 = ( BOUNDED_SURFACE() B_SPLINE_SURFACE(2,1,(
    (#55,#56)
    ,(#57,#58)
    ,(#59,#60)
    ,(#61,#62)
,(#63,#64
    )),.UNSPECIFIED.,.F.,.F.,.F.) B_SPLINE_SURFACE_WITH_KNOTS((3,2,3),(2
    ,2),(3.14159265359,4.712388980385,6.28318530718),(-3.76654979661,0.)
,.PIECEWISE_BEZIER_KNOTS.) GEOMETRIC_REPRESENTATION_ITEM() 
RATIONAL_B_SPLINE_SURFACE((
    (1.,1.)
    ,(0.707106781187,0.707106781187)
    ,(1.,1.)
    ,(0.707106781187,0.707106781187)
,(1.,1.))) REPRESENTATION_ITEM('') SURFACE() );
#55 = CARTESIAN_POINT('',(-2.101223059587,2.573256094218E-16,
    -11.85061648514));
#56 = CARTESIAN_POINT('',(-2.908393056793,3.561754247664E-16,
    -8.681770318784));
#57 = CARTESIAN_POINT('',(-2.101223059587,-2.101223059587,
    -11.85061648514));
#58 = CARTESIAN_POINT('',(-2.908393056793,-2.908393056793,
    -8.681770318784));
#59 = CARTESIAN_POINT('',(3.67035125119E-16,-2.101223059587,
    -11.85061648514));
#60 = CARTESIAN_POINT('',(2.187604021021E-16,-2.908393056793,
    -8.681770318784));
#61 = CARTESIAN_POINT('',(2.101223059587,-2.101223059587,-11.85061648514
    ));
#62 = CARTESIAN_POINT('',(2.908393056793,-2.908393056793,-8.681770318784
    ));
#63 = CARTESIAN_POINT('',(2.101223059587,-5.146512188435E-16,
    -11.85061648514));
#64 = CARTESIAN_POINT('',(2.908393056793,-7.123508495327E-16,
    -8.681770318784));
#65 = ADVANCED_FACE('',(#66),#102,.T.);
#66 = FACE_BOUND('',#67,.T.);
#67 = EDGE_LOOP('',(#68,#80,#87,#97));
#68 = ORIENTED_EDGE('',*,*,#69,.T.);
#69 = EDGE_CURVE('',#70,#72,#74,.T.);
#70 = VERTEX_POINT('',#71);
#71 = CARTESIAN_POINT('',(-3.255663869544,0.,-8.681770318784));
#72 = VERTEX_POINT('',#73);
#73 = CARTESIAN_POINT('',(3.255663869544,3.987038336937E-16,
    -8.681770318784));
#74 = ( BOUNDED_CURVE() B_SPLINE_CURVE(2,(#75,#76,#77,#78,#79),
.UNSPECIFIED.,.F.,.F.) B_SPLINE_CURVE_WITH_KNOTS((3,2,3),(0.,
1.570796326795,3.14159265359),.PIECEWISE_BEZIER_KNOTS.) CURVE() 
GEOMETRIC_REPRESENTATION_ITEM() RATIONAL_B_SPLINE_CURVE((1.,
0.707106781187,1.,0.707106781187,1.)) REPRESENTATION_ITEM('') );
#75 = CARTESIAN_POINT('',(-3.255663869544,0.,-8.681770318784));
#76 = CARTESIAN_POINT('',(-3.255663869544,3.255663869544,-8.681770318784
    ));
#77 = CARTESIAN_POINT('',(5.536716224048E-16,3.255663869544,
    -8.681770318784));
#78 = CARTESIAN_POINT('',(3.255663869544,3.255663869544,-8.681770318784)
  );
#79 = CARTESIAN_POINT('',(3.255663869544,3.987038336937E-16,
    -8.681770318784));
#80 = ORIENTED_EDGE('',*,*,#81,.T.);
#81 = EDGE_CURVE('',#72,#82,#84,.T.);
#82 = VERTEX_POINT('',#83);
#83 = CARTESIAN_POINT('',(3.255663869544,3.987038336937E-16,
    -26.04531095635));
#84 = B_SPLINE_CURVE_WITH_KNOTS('',1,(#85,#86),.UNSPECIFIED.,.F.,.F.,(2,
    2),(-20.,-0.),.PIECEWISE_BEZIER_KNOTS.);
#85 = CARTESIAN_POINT('',(3.255663869544,3.987038336937E-16,
    -8.681770318784));
#86 = CARTESIAN_POINT('',(3.255663869544,3.987038336937E-16,
    -26.04531095635));
#87 = ORIENTED_EDGE('',*,*,#88,.F.);
#88 = EDGE_CURVE('',#89,#82,#91,.T.);
#89 = VERTEX_POINT('',#90);
#90 = CARTESIAN_POINT('',(-3.255663869544,0.,-26.04531095635));
#91 = ( BOUNDED_CURVE() B_SPLINE_CURVE(2,(#92,#93,#94,#95,#96),
.UNSPECIFIED.,.F.,.F.) B_SPLINE_CURVE_WITH_KNOTS((3,2,3),(0.,
1.570796326795,3.14159265359),.PIECEWISE_BEZIER_KNOTS.) CURVE() 
GEOMETRIC_REPRESENTATION_ITEM() RATIONAL_B_SPLINE_CURVE((1.,
0.707106781187,1.,0.707106781187,1.)) REPRESENTATION_ITEM('') );
#92 = CARTESIAN_POINT('',(-3.255663869544,0.,-26.04531095635));
#93 = CARTESIAN_POINT('',(-3.255663869544,3.255663869544,-26.04531095635
    ));
#94 = CARTESIAN_POINT('',(5.536716224048E-16,3.255663869544,
    -26.04531095635));
#95 = CARTESIAN_POINT('',(3.255663869544,3.255663869544,-26.04531095635)
  );
#96 = CARTESIAN_POINT('',(3.255663869544,3.987038336937E-16,
    -26.04531095635));
#97 = ORIENTED_EDGE('',*,*,#98,.F.);
#98 = EDGE_CURVE('',#70,#89,#99,.T.);
#99 = B_SPLINE_CURVE_WITH_KNOTS('',1,(#100,#101),.UNSPECIFIED.,.F.,.F.,(
    2,2),(-20.,-0.),.PIECEWISE_BEZIER_KNOTS.);
#100 = CARTESIAN_POINT('',(-3.255663869544,0.,-8.681770318784));
#101 = CARTESIAN_POINT('',(-3.255663869544,0.,-26.04531095635));
#102 = ( BOUNDED_SURFACE() B_SPLINE_SURFACE(2,1,(
    (#103,#104)
    ,(#105,#106)
    ,(#107,#108)
    ,(#109,#110)
,(#111,#112
    )),.UNSPECIFIED.,.F.,.F.,.F.) B_SPLINE_SURFACE_WITH_KNOTS((3,2,3),(2
    ,2),(0.,1.570796326795,3.14159265359),(-20.,0.),
.PIECEWISE_BEZIER_KNOTS.) GEOMETRIC_REPRESENTATION_ITEM() 
RATIONAL_B_SPLINE_SURFACE((
    (1.,1.)
    ,(0.707106781187,0.707106781187)
    ,(1.,1.)
    ,(0.707106781187,0.707106781187)
,(1.,1.))) REPRESENTATION_ITEM('') SURFACE() );
#103 = CARTESIAN_POINT('',(-3.255663869544,0.,-8.681770318784));
#104 = CARTESIAN_POINT('',(-3.255663869544,0.,-26.04531095635));
#105 = CARTESIAN_POINT('',(-3.255663869544,3.255663869544,
    -8.681770318784));
#106 = CARTESIAN_POINT('',(-3.255663869544,3.255663869544,
    -26.04531095635));
#107 = CARTESIAN_POINT('',(5.536716224048E-16,3.255663869544,
    -8.681770318784));
#108 = CARTESIAN_POINT('',(5.536716224048E-16,3.255663869544,
    -26.04531095635));
#109 = CARTESIAN_POINT('',(3.255663869544,3.255663869544,-8.681770318784
    ));
#110 = CARTESIAN_POINT('',(3.255663869544,3.255663869544,-26.04531095635
    ));
#111 = CARTESIAN_POINT('',(3.255663869544,3.987038336937E-16,
    -8.681770318784));
#112 = CARTESIAN_POINT('',(3.255663869544,3.987038336937E-16,
    -26.04531095635));
#113 = ADVANCED_FACE('',(#114,#125),#136,.T.);
#114 = FACE_BOUND('',#115,.T.);
#115 = EDGE_LOOP('',(#116,#117));
#116 = ORIENTED_EDGE('',*,*,#30,.T.);
#117 = ORIENTED_EDGE('',*,*,#118,.T.);
#118 = EDGE_CURVE('',#31,#24,#119,.T.);
#119 = ( BOUNDED_CURVE() B_SPLINE_CURVE(2,(#120,#121,#122,#123,#124),
.UNSPECIFIED.,.F.,.F.) B_SPLINE_CURVE_WITH_KNOTS((3,2,3),(0.,
1.570796326795,3.14159265359),.PIECEWISE_BEZIER_KNOTS.) CURVE() 
GEOMETRIC_REPRESENTATION_ITEM() RATIONAL_B_SPLINE_CURVE((1.,
0.707106781187,1.,0.707106781187,1.)) REPRESENTATION_ITEM('') );
#120 = CARTESIAN_POINT('',(-2.908393056793,0.,-8.681770318784));
#121 = CARTESIAN_POINT('',(-2.908393056793,2.908393056793,
    -8.681770318784));
#122 = CARTESIAN_POINT('',(5.749358268685E-16,2.908393056793,
    -8.681770318784));
#123 = CARTESIAN_POINT('',(2.908393056793,2.908393056793,-8.681770318784
    ));
#124 = CARTESIAN_POINT('',(2.908393056793,3.561754247664E-16,
    -8.681770318784));
#125 = FACE_BOUND('',#126,.T.);
#126 = EDGE_LOOP('',(#127,#128));
#127 = ORIENTED_EDGE('',*,*,#69,.F.);
#128 = ORIENTED_EDGE('',*,*,#129,.F.);
#129 = EDGE_CURVE('',#72,#70,#130,.T.);
#130 = ( BOUNDED_CURVE() B_SPLINE_CURVE(2,(#131,#132,#133,#134,#135),
.UNSPECIFIED.,.F.,.F.) B_SPLINE_CURVE_WITH_KNOTS((3,2,3),(3.14159265359,
4.712388980385,6.28318530718),.PIECEWISE_BEZIER_KNOTS.) CURVE() 
GEOMETRIC_REPRESENTATION_ITEM() RATIONAL_B_SPLINE_CURVE((1.,
0.707106781187,1.,0.707106781187,1.)) REPRESENTATION_ITEM('') );
#131 = CARTESIAN_POINT('',(3.255663869544,3.987038336937E-16,
    -8.681770318784));
#132 = CARTESIAN_POINT('',(3.255663869544,-3.255663869544,
    -8.681770318784));
#133 = CARTESIAN_POINT('',(1.351079289792E-15,-3.255663869544,
    -8.681770318784));
#134 = CARTESIAN_POINT('',(-3.255663869544,-3.255663869544,
    -8.681770318784));
#135 = CARTESIAN_POINT('',(-3.255663869544,-7.974076673874E-16,
    -8.681770318784));
#136 = B_SPLINE_SURFACE_WITH_KNOTS('',1,1,(
    (#137,#138)
    ,(#139,#140
    )),.UNSPECIFIED.,.F.,.F.,.F.,(2,2),(2,2),(0.,7.5),(-3.75,3.75),
  .PIECEWISE_BEZIER_KNOTS.);
#137 = CARTESIAN_POINT('',(-3.255663869544,-3.255663869544,
    -8.681770318784));
#138 = CARTESIAN_POINT('',(-3.255663869544,3.255663869544,
    -8.681770318784));
#139 = CARTESIAN_POINT('',(3.255663869544,-3.255663869544,
    -8.681770318784));
#140 = CARTESIAN_POINT('',(3.255663869544,3.255663869544,-8.681770318784
    ));
#141 = ADVANCED_FACE('',(#142),#155,.T.);
#142 = FACE_BOUND('',#143,.T.);
#143 = EDGE_LOOP('',(#144,#145,#146,#147));
#144 = ORIENTED_EDGE('',*,*,#81,.F.);
#145 = ORIENTED_EDGE('',*,*,#129,.T.);
#146 = ORIENTED_EDGE('',*,*,#98,.T.);
#147 = ORIENTED_EDGE('',*,*,#148,.F.);
#148 = EDGE_CURVE('',#82,#89,#149,.T.);
#149 = ( BOUNDED_CURVE() B_SPLINE_CURVE(2,(#150,#151,#152,#153,#154),
.UNSPECIFIED.,.F.,.F.) B_SPLINE_CURVE_WITH_KNOTS((3,2,3),(3.14159265359,
4.712388980385,6.28318530718),.PIECEWISE_BEZIER_KNOTS.) CURVE() 
GEOMETRIC_REPRESENTATION_ITEM() RATIONAL_B_SPLINE_CURVE((1.,
0.707106781187,1.,0.707106781187,1.)) REPRESENTATION_ITEM('') );
#150 = CARTESIAN_POINT('',(3.255663869544,3.987038336937E-16,
    -26.04531095635));
#151 = CARTESIAN_POINT('',(3.255663869544,-3.255663869544,
    -26.04531095635));
#152 = CARTESIAN_POINT('',(1.351079289792E-15,-3.255663869544,
    -26.04531095635));
#153 = CARTESIAN_POINT('',(-3.255663869544,-3.255663869544,
    -26.04531095635));
#154 = CARTESIAN_POINT('',(-3.255663869544,-7.974076673874E-16,
    -26.04531095635));
#155 = ( BOUNDED_SURFACE() B_SPLINE_SURFACE(2,1,(
    (#156,#157)
    ,(#158,#159)
    ,(#160,#161)
    ,(#162,#163)
,(#164,#165
    )),.UNSPECIFIED.,.F.,.F.,.F.) B_SPLINE_SURFACE_WITH_KNOTS((3,2,3),(2
    ,2),(3.14159265359,4.712388980385,6.28318530718),(-20.,0.),
.PIECEWISE_BEZIER_KNOTS.) GEOMETRIC_REPRESENTATION_ITEM() 
RATIONAL_B_SPLINE_SURFACE((
    (1.,1.)
    ,(0.707106781187,0.707106781187)
    ,(1.,1.)
    ,(0.707106781187,0.707106781187)
,(1.,1.))) REPRESENTATION_ITEM('') SURFACE() );
#156 = CARTESIAN_POINT('',(3.255663869544,3.987038336937E-16,
    -8.681770318784));
#157 = CARTESIAN_POINT('',(3.255663869544,3.987038336937E-16,
    -26.04531095635));
#158 = CARTESIAN_POINT('',(3.255663869544,-3.255663869544,
    -8.681770318784));
#159 = CARTESIAN_POINT('',(3.255663869544,-3.255663869544,
    -26.04531095635));
#160 = CARTESIAN_POINT('',(1.351079289792E-15,-3.255663869544,
    -8.681770318784));
#161 = CARTESIAN_POINT('',(1.351079289792E-15,-3.255663869544,
    -26.04531095635));
#162 = CARTESIAN_POINT('',(-3.255663869544,-3.255663869544,
    -8.681770318784));
#163 = CARTESIAN_POINT('',(-3.255663869544,-3.255663869544,
    -26.04531095635));
#164 = CARTESIAN_POINT('',(-3.255663869544,-7.974076673874E-16,
    -8.681770318784));
#165 = CARTESIAN_POINT('',(-3.255663869544,-7.974076673874E-16,
    -26.04531095635));
#166 = ADVANCED_FACE('',(#167),#171,.T.);
#167 = FACE_BOUND('',#168,.T.);
#168 = EDGE_LOOP('',(#169,#170));
#169 = ORIENTED_EDGE('',*,*,#88,.T.);
#170 = ORIENTED_EDGE('',*,*,#148,.T.);
#171 = B_SPLINE_SURFACE_WITH_KNOTS('',1,1,(
    (#172,#173)
    ,(#174,#175
    )),.UNSPECIFIED.,.F.,.F.,.F.,(2,2),(2,2),(-7.5,0.),(-3.75,3.75),
  .PIECEWISE_BEZIER_KNOTS.);
#172 = CARTESIAN_POINT('',(3.255663869544,-3.255663869544,
    -26.04531095635));
#173 = CARTESIAN_POINT('',(3.255663869544,3.255663869544,-26.04531095635
    ));
#174 = CARTESIAN_POINT('',(-3.255663869544,-3.255663869544,
    -26.04531095635));
#175 = CARTESIAN_POINT('',(-3.255663869544,3.255663869544,
    -26.04531095635));
#176 = ADVANCED_FACE('',(#177),#188,.T.);
#177 = FACE_BOUND('',#178,.T.);
#178 = EDGE_LOOP('',(#179,#180));
#179 = ORIENTED_EDGE('',*,*,#47,.F.);
#180 = ORIENTED_EDGE('',*,*,#181,.F.);
#181 = EDGE_CURVE('',#41,#22,#182,.T.);
#182 = ( BOUNDED_CURVE() B_SPLINE_CURVE(2,(#183,#184,#185,#186,#187),
.UNSPECIFIED.,.F.,.F.) B_SPLINE_CURVE_WITH_KNOTS((3,2,3),(0.,
1.570796326795,3.14159265359),.PIECEWISE_BEZIER_KNOTS.) CURVE() 
GEOMETRIC_REPRESENTATION_ITEM() RATIONAL_B_SPLINE_CURVE((1.,
0.707106781187,1.,0.707106781187,1.)) REPRESENTATION_ITEM('') );
#183 = CARTESIAN_POINT('',(-2.101223059587,0.,-11.85061648514));
#184 = CARTESIAN_POINT('',(-2.101223059587,2.101223059587,
    -11.85061648514));
#185 = CARTESIAN_POINT('',(6.243607345408E-16,2.101223059587,
    -11.85061648514));
#186 = CARTESIAN_POINT('',(2.101223059587,2.101223059587,-11.85061648514
    ));
#187 = CARTESIAN_POINT('',(2.101223059587,2.573256094218E-16,
    -11.85061648514));
#188 = B_SPLINE_SURFACE_WITH_KNOTS('',1,1,(
    (#189,#190)
    ,(#191,#192
    )),.UNSPECIFIED.,.F.,.F.,.F.,(2,2),(2,2),(0.,4.840540540541),(
    -2.42027027027,2.42027027027),.PIECEWISE_BEZIER_KNOTS.);
#189 = CARTESIAN_POINT('',(-2.101223059587,-2.101223059587,
    -11.85061648514));
#190 = CARTESIAN_POINT('',(-2.101223059587,2.101223059587,
    -11.85061648514));
#191 = CARTESIAN_POINT('',(2.101223059587,-2.101223059587,
    -11.85061648514));
#192 = CARTESIAN_POINT('',(2.101223059587,2.101223059587,-11.85061648514
    ));
#193 = ADVANCED_FACE('',(#194),#200,.F.);
#194 = FACE_BOUND('',#195,.F.);
#195 = EDGE_LOOP('',(#196,#197,#198,#199));
#196 = ORIENTED_EDGE('',*,*,#118,.T.);
#197 = ORIENTED_EDGE('',*,*,#21,.F.);
#198 = ORIENTED_EDGE('',*,*,#181,.F.);
#199 = ORIENTED_EDGE('',*,*,#40,.T.);
#200 = ( BOUNDED_SURFACE() B_SPLINE_SURFACE(2,1,(
    (#201,#202)
    ,(#203,#204)
    ,(#205,#206)
    ,(#207,#208)
,(#209,#210
    )),.UNSPECIFIED.,.F.,.F.,.F.) B_SPLINE_SURFACE_WITH_KNOTS((3,2,3),(2
    ,2),(0.,1.570796326795,3.14159265359),(-3.76654979661,0.),
.PIECEWISE_BEZIER_KNOTS.) GEOMETRIC_REPRESENTATION_ITEM() 
RATIONAL_B_SPLINE_SURFACE((
    (1.,1.)
    ,(0.707106781187,0.707106781187)
    ,(1.,1.)
    ,(0.707106781187,0.707106781187)
,(1.,1.))) REPRESENTATION_ITEM('') SURFACE() );
#201 = CARTESIAN_POINT('',(2.101223059587,0.,-11.85061648514));
#202 = CARTESIAN_POINT('',(2.908393056793,0.,-8.681770318784));
#203 = CARTESIAN_POINT('',(2.101223059587,2.101223059587,-11.85061648514
    ));
#204 = CARTESIAN_POINT('',(2.908393056793,2.908393056793,-8.681770318784
    ));
#205 = CARTESIAN_POINT('',(8.816863439626E-16,2.101223059587,
    -11.85061648514));
#206 = CARTESIAN_POINT('',(9.311112516349E-16,2.908393056793,
    -8.681770318784));
#207 = CARTESIAN_POINT('',(-2.101223059587,2.101223059587,
    -11.85061648514));
#208 = CARTESIAN_POINT('',(-2.908393056793,2.908393056793,
    -8.681770318784));
#209 = CARTESIAN_POINT('',(-2.101223059587,2.573256094218E-16,
    -11.85061648514));
#210 = CARTESIAN_POINT('',(-2.908393056793,3.561754247664E-16,
    -8.681770318784));
#211 = ( GEOMETRIC_REPRESENTATION_CONTEXT(3) 
GLOBAL_UNCERTAINTY_ASSIGNED_CONTEXT((#215)) GLOBAL_UNIT_ASSIGNED_CONTEXT
((#212,#213,#214)) REPRESENTATION_CONTEXT('Context #1',
  '3D Context with UNIT and UNCERTAINTY') );
#212 = ( LENGTH_UNIT() NAMED_UNIT(*) SI_UNIT(.MILLI.,.METRE.) );
#213 = ( NAMED_UNIT(*) PLANE_ANGLE_UNIT() SI_UNIT($,.RADIAN.) );
#214 = ( NAMED_UNIT(*) SI_UNIT($,.STERADIAN.) SOLID_ANGLE_UNIT() );
#215 = UNCERTAINTY_MEASURE_WITH_UNIT(LENGTH_MEASURE(1.E-07),#212,
  'distance_accuracy_value','confusion accuracy');
#216 = PRODUCT_RELATED_PRODUCT_CATEGORY('part',$,(#7));
ENDSEC;
END-ISO-10303-21;
