ISO-10303-21;
HEADER;
FILE_DESCRIPTION(('FreeCAD Model'),'2;1');
FILE_NAME('Open CASCADE Shape Model','2025-04-26T09:04:15',('FreeCAD'),(
    'FreeCAD'),'Open CASCADE STEP processor 7.6','FreeCAD','Unknown');
FILE_SCHEMA(('AUTOMOTIVE_DESIGN { 1 0 10303 214 1 1 1 1 }'));
ENDSEC;
DATA;
#1 = APPLICATION_PROTOCOL_DEFINITION('international standard',
  'automotive_design',2000,#2);
#2 = APPLICATION_CONTEXT(
  'core data for automotive mechanical design processes');
#3 = SHAPE_DEFINITION_REPRESENTATION(#4,#10);
#4 = PRODUCT_DEFINITION_SHAPE('','',#5);
#5 = PRODUCT_DEFINITION('design','',#6,#9);
#6 = PRODUCT_DEFINITION_FORMATION('','',#7);
#7 = PRODUCT('Open CASCADE STEP translator 7.6 1',
  'Open CASCADE STEP translator 7.6 1','',(#8));
#8 = PRODUCT_CONTEXT('',#2,'mechanical');
#9 = PRODUCT_DEFINITION_CONTEXT('part definition',#2,'design');
#10 = ADVANCED_BREP_SHAPE_REPRESENTATION('',(#11,#15),#245);
#11 = AXIS2_PLACEMENT_3D('',#12,#13,#14);
#12 = CARTESIAN_POINT('',(0.,0.,0.));
#13 = DIRECTION('',(0.,0.,1.));
#14 = DIRECTION('',(1.,0.,-0.));
#15 = MANIFOLD_SOLID_BREP('',#16);
#16 = CLOSED_SHELL('',(#17,#69,#92,#101,#149,#169,#207));
#17 = ADVANCED_FACE('',(#18),#50,.T.);
#18 = FACE_BOUND('',#19,.T.);
#19 = EDGE_LOOP('',(#20,#32,#39,#49));
#20 = ORIENTED_EDGE('',*,*,#21,.T.);
#21 = EDGE_CURVE('',#22,#22,#24,.T.);
#22 = VERTEX_POINT('',#23);
#23 = CARTESIAN_POINT('',(-3.287144635302,0.,1.011429118555));
#24 = ( BOUNDED_CURVE() B_SPLINE_CURVE(2,(#25,#26,#27,#28,#29,#30,#31),
.UNSPECIFIED.,.T.,.F.) B_SPLINE_CURVE_WITH_KNOTS((1,2,2,2,2,1),(
    -2.094395102393,0.,2.094395102393,4.188790204786,6.28318530718,
8.377580409573),.UNSPECIFIED.) CURVE() GEOMETRIC_REPRESENTATION_ITEM() 
RATIONAL_B_SPLINE_CURVE((1.,0.5,1.,0.5,1.,0.5,1.)) REPRESENTATION_ITEM(
  '') );
#25 = CARTESIAN_POINT('',(-3.287144635302,0.,1.011429118555));
#26 = CARTESIAN_POINT('',(-3.287144635302,5.693501520171,1.011429118555)
  );
#27 = CARTESIAN_POINT('',(1.643572317651,2.846750760086,1.011429118555)
  );
#28 = CARTESIAN_POINT('',(6.574289270605,8.051182311915E-16,
    1.011429118555));
#29 = CARTESIAN_POINT('',(1.643572317651,-2.846750760086,1.011429118555)
  );
#30 = CARTESIAN_POINT('',(-3.287144635302,-5.693501520171,1.011429118555
    ));
#31 = CARTESIAN_POINT('',(-3.287144635302,0.,1.011429118555));
#32 = ORIENTED_EDGE('',*,*,#33,.F.);
#33 = EDGE_CURVE('',#34,#22,#36,.T.);
#34 = VERTEX_POINT('',#35);
#35 = CARTESIAN_POINT('',(-3.287144635302,0.,0.505714559277));
#36 = B_SPLINE_CURVE_WITH_KNOTS('',1,(#37,#38),.UNSPECIFIED.,.F.,.F.,(2,
    2),(-0.5,0.),.PIECEWISE_BEZIER_KNOTS.);
#37 = CARTESIAN_POINT('',(-3.287144635302,1.207677346787E-15,
    0.505714559277));
#38 = CARTESIAN_POINT('',(-3.287144635302,1.207677346787E-15,
    1.011429118555));
#39 = ORIENTED_EDGE('',*,*,#40,.F.);
#40 = EDGE_CURVE('',#34,#34,#41,.T.);
#41 = ( BOUNDED_CURVE() B_SPLINE_CURVE(2,(#42,#43,#44,#45,#46,#47,#48),
.UNSPECIFIED.,.T.,.F.) B_SPLINE_CURVE_WITH_KNOTS((1,2,2,2,2,1),(
    -2.094395102393,0.,2.094395102393,4.188790204786,6.28318530718,
8.377580409573),.UNSPECIFIED.) CURVE() GEOMETRIC_REPRESENTATION_ITEM() 
RATIONAL_B_SPLINE_CURVE((1.,0.5,1.,0.5,1.,0.5,1.)) REPRESENTATION_ITEM(
  '') );
#42 = CARTESIAN_POINT('',(-3.287144635302,0.,0.505714559277));
#43 = CARTESIAN_POINT('',(-3.287144635302,5.693501520171,0.505714559277)
  );
#44 = CARTESIAN_POINT('',(1.643572317651,2.846750760086,0.505714559277)
  );
#45 = CARTESIAN_POINT('',(6.574289270605,8.051182311915E-16,
    0.505714559277));
#46 = CARTESIAN_POINT('',(1.643572317651,-2.846750760086,0.505714559277)
  );
#47 = CARTESIAN_POINT('',(-3.287144635302,-5.693501520171,0.505714559277
    ));
#48 = CARTESIAN_POINT('',(-3.287144635302,0.,0.505714559277));
#49 = ORIENTED_EDGE('',*,*,#33,.T.);
#50 = ( BOUNDED_SURFACE() B_SPLINE_SURFACE(2,1,(
    (#51,#52)
    ,(#53,#54)
    ,(#55,#56)
    ,(#57,#58)
    ,(#59,#60)
    ,(#61,#62)
    ,(#63,#64)
    ,(#65,#66)
,(#67,#68
    )),.UNSPECIFIED.,.T.,.F.,.F.) B_SPLINE_SURFACE_WITH_KNOTS((3,2,2,2,3
    ),(2,2),(3.14159265359,4.188790204786,6.28318530718,8.377580409573,
    9.424777960769),(-0.5,0.),.UNSPECIFIED.) 
GEOMETRIC_REPRESENTATION_ITEM() RATIONAL_B_SPLINE_SURFACE((
    (0.75,0.75)
    ,(0.75,0.75)
    ,(1.,1.)
    ,(0.5,0.5)
    ,(1.,1.)
    ,(0.5,0.5)
    ,(1.,1.)
    ,(0.75,0.75)
,(0.75,0.75))) REPRESENTATION_ITEM('') SURFACE() );
#51 = CARTESIAN_POINT('',(-3.287144635302,1.497215860261E-16,
    0.505714559277));
#52 = CARTESIAN_POINT('',(-3.287144635302,1.497215860261E-16,
    1.011429118555));
#53 = CARTESIAN_POINT('',(-3.287144635302,-1.897833840057,0.505714559277
    ));
#54 = CARTESIAN_POINT('',(-3.287144635302,-1.897833840057,1.011429118555
    ));
#55 = CARTESIAN_POINT('',(-1.643572317651,-2.846750760086,0.505714559277
    ));
#56 = CARTESIAN_POINT('',(-1.643572317651,-2.846750760086,1.011429118555
    ));
#57 = CARTESIAN_POINT('',(3.287144635302,-5.693501520171,0.505714559277)
  );
#58 = CARTESIAN_POINT('',(3.287144635302,-5.693501520171,1.011429118555)
  );
#59 = CARTESIAN_POINT('',(3.287144635302,0.,0.505714559277));
#60 = CARTESIAN_POINT('',(3.287144635302,0.,1.011429118555));
#61 = CARTESIAN_POINT('',(3.287144635302,5.693501520171,0.505714559277)
  );
#62 = CARTESIAN_POINT('',(3.287144635302,5.693501520171,1.011429118555)
  );
#63 = CARTESIAN_POINT('',(-1.643572317651,2.846750760086,0.505714559277)
  );
#64 = CARTESIAN_POINT('',(-1.643572317651,2.846750760086,1.011429118555)
  );
#65 = CARTESIAN_POINT('',(-3.287144635302,1.897833840057,0.505714559277)
  );
#66 = CARTESIAN_POINT('',(-3.287144635302,1.897833840057,1.011429118555)
  );
#67 = CARTESIAN_POINT('',(-3.287144635302,1.497215860261E-16,
    0.505714559277));
#68 = CARTESIAN_POINT('',(-3.287144635302,1.497215860261E-16,
    1.011429118555));
#69 = ADVANCED_FACE('',(#70,#84),#87,.F.);
#70 = FACE_BOUND('',#71,.T.);
#71 = EDGE_LOOP('',(#72));
#72 = ORIENTED_EDGE('',*,*,#73,.T.);
#73 = EDGE_CURVE('',#74,#74,#76,.T.);
#74 = VERTEX_POINT('',#75);
#75 = CARTESIAN_POINT('',(-2.68028716417,0.,1.011429118555));
#76 = ( BOUNDED_CURVE() B_SPLINE_CURVE(2,(#77,#78,#79,#80,#81,#82,#83),
.UNSPECIFIED.,.T.,.F.) B_SPLINE_CURVE_WITH_KNOTS((1,2,2,2,2,1),(
    -2.094395102393,0.,2.094395102393,4.188790204786,6.28318530718,
8.377580409573),.UNSPECIFIED.) CURVE() GEOMETRIC_REPRESENTATION_ITEM() 
RATIONAL_B_SPLINE_CURVE((1.,0.5,1.,0.5,1.,0.5,1.)) REPRESENTATION_ITEM(
  '') );
#77 = CARTESIAN_POINT('',(-2.68028716417,0.,1.011429118555));
#78 = CARTESIAN_POINT('',(-2.68028716417,4.642393547217,1.011429118555)
  );
#79 = CARTESIAN_POINT('',(1.340143582085,2.321196773608,1.011429118555)
  );
#80 = CARTESIAN_POINT('',(5.360574328339,6.564810192792E-16,
    1.011429118555));
#81 = CARTESIAN_POINT('',(1.340143582085,-2.321196773608,1.011429118555)
  );
#82 = CARTESIAN_POINT('',(-2.68028716417,-4.642393547217,1.011429118555)
  );
#83 = CARTESIAN_POINT('',(-2.68028716417,0.,1.011429118555));
#84 = FACE_BOUND('',#85,.T.);
#85 = EDGE_LOOP('',(#86));
#86 = ORIENTED_EDGE('',*,*,#21,.F.);
#87 = B_SPLINE_SURFACE_WITH_KNOTS('',1,1,(
    (#88,#89)
    ,(#90,#91
    )),.UNSPECIFIED.,.F.,.F.,.F.,(2,2),(2,2),(-3.25,3.25),(-3.25,3.25),
  .PIECEWISE_BEZIER_KNOTS.);
#88 = CARTESIAN_POINT('',(3.287144635302,-3.287144635302,1.011429118555)
  );
#89 = CARTESIAN_POINT('',(3.287144635302,3.287144635302,1.011429118555)
  );
#90 = CARTESIAN_POINT('',(-3.287144635302,-3.287144635302,1.011429118555
    ));
#91 = CARTESIAN_POINT('',(-3.287144635302,3.287144635302,1.011429118555)
  );
#92 = ADVANCED_FACE('',(#93),#96,.T.);
#93 = FACE_BOUND('',#94,.T.);
#94 = EDGE_LOOP('',(#95));
#95 = ORIENTED_EDGE('',*,*,#40,.T.);
#96 = B_SPLINE_SURFACE_WITH_KNOTS('',1,1,(
    (#97,#98)
    ,(#99,#100
    )),.UNSPECIFIED.,.F.,.F.,.F.,(2,2),(2,2),(-3.25,3.25),(-3.25,3.25),
  .PIECEWISE_BEZIER_KNOTS.);
#97 = CARTESIAN_POINT('',(3.287144635302,-3.287144635302,0.505714559277)
  );
#98 = CARTESIAN_POINT('',(3.287144635302,3.287144635302,0.505714559277)
  );
#99 = CARTESIAN_POINT('',(-3.287144635302,-3.287144635302,0.505714559277
    ));
#100 = CARTESIAN_POINT('',(-3.287144635302,3.287144635302,0.505714559277
    ));
#101 = ADVANCED_FACE('',(#102),#134,.T.);
#102 = FACE_BOUND('',#103,.T.);
#103 = EDGE_LOOP('',(#104,#116,#123,#133));
#104 = ORIENTED_EDGE('',*,*,#105,.T.);
#105 = EDGE_CURVE('',#106,#106,#108,.T.);
#106 = VERTEX_POINT('',#107);
#107 = CARTESIAN_POINT('',(-2.478001340459,0.,5.866288887617));
#108 = ( BOUNDED_CURVE() B_SPLINE_CURVE(2,(#109,#110,#111,#112,#113,#114
,#115),.UNSPECIFIED.,.T.,.F.) B_SPLINE_CURVE_WITH_KNOTS((1,2,2,2,2,1),(
    -2.094395102393,0.,2.094395102393,4.188790204786,6.28318530718,
8.377580409573),.UNSPECIFIED.) CURVE() GEOMETRIC_REPRESENTATION_ITEM() 
RATIONAL_B_SPLINE_CURVE((1.,0.5,1.,0.5,1.,0.5,1.)) REPRESENTATION_ITEM(
  '') );
#109 = CARTESIAN_POINT('',(-2.478001340459,0.,5.866288887617));
#110 = CARTESIAN_POINT('',(-2.478001340459,4.292024222898,5.866288887617
    ));
#111 = CARTESIAN_POINT('',(1.239000670229,2.146012111449,5.866288887617)
  );
#112 = CARTESIAN_POINT('',(4.956002680917,6.069352819751E-16,
    5.866288887617));
#113 = CARTESIAN_POINT('',(1.239000670229,-2.146012111449,5.866288887617
    ));
#114 = CARTESIAN_POINT('',(-2.478001340459,-4.292024222898,
    5.866288887617));
#115 = CARTESIAN_POINT('',(-2.478001340459,0.,5.866288887617));
#116 = ORIENTED_EDGE('',*,*,#117,.T.);
#117 = EDGE_CURVE('',#106,#118,#120,.T.);
#118 = VERTEX_POINT('',#119);
#119 = CARTESIAN_POINT('',(-2.478001340459,0.,1.213714942265));
#120 = B_SPLINE_CURVE_WITH_KNOTS('',1,(#121,#122),.UNSPECIFIED.,.F.,.F.,
  (2,2),(-1.8,2.8),.PIECEWISE_BEZIER_KNOTS.);
#121 = CARTESIAN_POINT('',(-2.478001340459,0.,5.866288887617));
#122 = CARTESIAN_POINT('',(-2.478001340459,0.,1.213714942265));
#123 = ORIENTED_EDGE('',*,*,#124,.F.);
#124 = EDGE_CURVE('',#118,#118,#125,.T.);
#125 = ( BOUNDED_CURVE() B_SPLINE_CURVE(2,(#126,#127,#128,#129,#130,#131
,#132),.UNSPECIFIED.,.T.,.F.) B_SPLINE_CURVE_WITH_KNOTS((1,2,2,2,2,1),(
    -2.094395102393,0.,2.094395102393,4.188790204786,6.28318530718,
8.377580409573),.UNSPECIFIED.) CURVE() GEOMETRIC_REPRESENTATION_ITEM() 
RATIONAL_B_SPLINE_CURVE((1.,0.5,1.,0.5,1.,0.5,1.)) REPRESENTATION_ITEM(
  '') );
#126 = CARTESIAN_POINT('',(-2.478001340459,0.,1.213714942265));
#127 = CARTESIAN_POINT('',(-2.478001340459,4.292024222898,1.213714942265
    ));
#128 = CARTESIAN_POINT('',(1.239000670229,2.146012111449,1.213714942265)
  );
#129 = CARTESIAN_POINT('',(4.956002680917,6.069352819751E-16,
    1.213714942265));
#130 = CARTESIAN_POINT('',(1.239000670229,-2.146012111449,1.213714942265
    ));
#131 = CARTESIAN_POINT('',(-2.478001340459,-4.292024222898,
    1.213714942265));
#132 = CARTESIAN_POINT('',(-2.478001340459,0.,1.213714942265));
#133 = ORIENTED_EDGE('',*,*,#117,.F.);
#134 = ( BOUNDED_SURFACE() B_SPLINE_SURFACE(2,1,(
    (#135,#136)
    ,(#137,#138)
    ,(#139,#140)
    ,(#141,#142)
    ,(#143,#144)
    ,(#145,#146)
,(#147,#148
    )),.UNSPECIFIED.,.T.,.F.,.F.) B_SPLINE_SURFACE_WITH_KNOTS((1,2,2,2,2
    ,1),(2,2),(-2.094395102393,0.,2.094395102393,4.188790204786,
    6.28318530718,8.377580409573),(-1.8,2.8),.UNSPECIFIED.) 
GEOMETRIC_REPRESENTATION_ITEM() RATIONAL_B_SPLINE_SURFACE((
    (1.,1.)
    ,(0.5,0.5)
    ,(1.,1.)
    ,(0.5,0.5)
    ,(1.,1.)
    ,(0.5,0.5)
,(1.,1.))) REPRESENTATION_ITEM('') SURFACE() );
#135 = CARTESIAN_POINT('',(-2.478001340459,0.,5.866288887617));
#136 = CARTESIAN_POINT('',(-2.478001340459,0.,1.213714942265));
#137 = CARTESIAN_POINT('',(-2.478001340459,4.292024222898,5.866288887617
    ));
#138 = CARTESIAN_POINT('',(-2.478001340459,4.292024222898,1.213714942265
    ));
#139 = CARTESIAN_POINT('',(1.239000670229,2.146012111449,5.866288887617)
  );
#140 = CARTESIAN_POINT('',(1.239000670229,2.146012111449,1.213714942265)
  );
#141 = CARTESIAN_POINT('',(4.956002680917,6.069352819751E-16,
    5.866288887617));
#142 = CARTESIAN_POINT('',(4.956002680917,6.069352819751E-16,
    1.213714942265));
#143 = CARTESIAN_POINT('',(1.239000670229,-2.146012111449,5.866288887617
    ));
#144 = CARTESIAN_POINT('',(1.239000670229,-2.146012111449,1.213714942265
    ));
#145 = CARTESIAN_POINT('',(-2.478001340459,-4.292024222898,
    5.866288887617));
#146 = CARTESIAN_POINT('',(-2.478001340459,-4.292024222898,
    1.213714942265));
#147 = CARTESIAN_POINT('',(-2.478001340459,0.,5.866288887617));
#148 = CARTESIAN_POINT('',(-2.478001340459,0.,1.213714942265));
#149 = ADVANCED_FACE('',(#150),#164,.F.);
#150 = FACE_BOUND('',#151,.T.);
#151 = EDGE_LOOP('',(#152));
#152 = ORIENTED_EDGE('',*,*,#153,.F.);
#153 = EDGE_CURVE('',#154,#154,#156,.T.);
#154 = VERTEX_POINT('',#155);
#155 = CARTESIAN_POINT('',(-2.275715516748,0.,6.068574711327));
#156 = ( BOUNDED_CURVE() B_SPLINE_CURVE(2,(#157,#158,#159,#160,#161,#162
,#163),.UNSPECIFIED.,.T.,.F.) B_SPLINE_CURVE_WITH_KNOTS((1,2,2,2,2,1),(
    -2.094395102393,0.,2.094395102393,4.188790204786,6.28318530718,
8.377580409573),.UNSPECIFIED.) CURVE() GEOMETRIC_REPRESENTATION_ITEM() 
RATIONAL_B_SPLINE_CURVE((1.,0.5,1.,0.5,1.,0.5,1.)) REPRESENTATION_ITEM(
  '') );
#157 = CARTESIAN_POINT('',(-2.275715516748,0.,6.068574711327));
#158 = CARTESIAN_POINT('',(-2.275715516748,3.94165489858,6.068574711327)
  );
#159 = CARTESIAN_POINT('',(1.137857758374,1.97082744929,6.068574711327)
  );
#160 = CARTESIAN_POINT('',(4.551431033496,5.57389544671E-16,
    6.068574711327));
#161 = CARTESIAN_POINT('',(1.137857758374,-1.97082744929,6.068574711327)
  );
#162 = CARTESIAN_POINT('',(-2.275715516748,-3.94165489858,6.068574711327
    ));
#163 = CARTESIAN_POINT('',(-2.275715516748,0.,6.068574711327));
#164 = B_SPLINE_SURFACE_WITH_KNOTS('',1,1,(
    (#165,#166)
    ,(#167,#168
    )),.UNSPECIFIED.,.F.,.F.,.F.,(2,2),(2,2),(-2.25,2.25),(-2.25,2.25),
  .PIECEWISE_BEZIER_KNOTS.);
#165 = CARTESIAN_POINT('',(2.275715516748,-2.275715516748,6.068574711327
    ));
#166 = CARTESIAN_POINT('',(2.275715516748,2.275715516748,6.068574711327)
  );
#167 = CARTESIAN_POINT('',(-2.275715516748,-2.275715516748,
    6.068574711327));
#168 = CARTESIAN_POINT('',(-2.275715516748,2.275715516748,6.068574711327
    ));
#169 = ADVANCED_FACE('',(#170),#185,.F.);
#170 = FACE_BOUND('',#171,.F.);
#171 = EDGE_LOOP('',(#172,#173,#183,#184));
#172 = ORIENTED_EDGE('',*,*,#124,.F.);
#173 = ORIENTED_EDGE('',*,*,#174,.F.);
#174 = EDGE_CURVE('',#74,#118,#175,.T.);
#175 = ( BOUNDED_CURVE() B_SPLINE_CURVE(6,(#176,#177,#178,#179,#180,#181
,#182),.UNSPECIFIED.,.F.,.F.) B_SPLINE_CURVE_WITH_KNOTS((7,7),(
1.570796326795,3.14159265359),.PIECEWISE_BEZIER_KNOTS.) CURVE() 
GEOMETRIC_REPRESENTATION_ITEM() RATIONAL_B_SPLINE_CURVE((1.031393471788,
    1.010025407661,0.997924642725,0.993958444137,0.997924642725,
1.010025407661,1.031393471788)) REPRESENTATION_ITEM('') );
#176 = CARTESIAN_POINT('',(-2.68028716417,-6.564810192792E-16,
    1.011429118555));
#177 = CARTESIAN_POINT('',(-2.626208722781,-6.432356212494E-16,
    1.011429118555));
#178 = CARTESIAN_POINT('',(-2.573539200886,-6.303353089689E-16,
    1.028624293642));
#179 = CARTESIAN_POINT('',(-2.528184506077,-6.192266126043E-16,
    1.061612284173));
#180 = CARTESIAN_POINT('',(-2.495196515546,-6.111468852013E-16,
    1.106966978981));
#181 = CARTESIAN_POINT('',(-2.478001340459,-6.069352819751E-16,
    1.159636500877));
#182 = CARTESIAN_POINT('',(-2.478001340459,-6.069352819751E-16,
    1.213714942265));
#183 = ORIENTED_EDGE('',*,*,#73,.T.);
#184 = ORIENTED_EDGE('',*,*,#174,.T.);
#185 = ( BOUNDED_SURFACE() B_SPLINE_SURFACE(2,2,(
    (#186,#187,#188)
    ,(#189,#190,#191)
    ,(#192,#193,#194)
    ,(#195,#196,#197)
    ,(#198,#199,#200)
    ,(#201,#202,#203)
    ,(#204,#205,#206
)),.UNSPECIFIED.,.T.,.F.,.F.) B_SPLINE_SURFACE_WITH_KNOTS((1,2,2,2,2,1),
  (3,3),(-2.094395102393,0.,2.094395102393,4.188790204786,6.28318530718,
    8.377580409573),(7.853981633974,9.424777960769),.UNSPECIFIED.) 
GEOMETRIC_REPRESENTATION_ITEM() RATIONAL_B_SPLINE_SURFACE((
    (1.,0.707106781187,1.)
    ,(0.5,0.353553390593,0.5)
    ,(1.,0.707106781187,1.)
    ,(0.5,0.353553390593,0.5)
    ,(1.,0.707106781187,1.)
    ,(0.5,0.353553390593,0.5)
,(1.,0.707106781187,1.))) REPRESENTATION_ITEM('') SURFACE() );
#186 = CARTESIAN_POINT('',(-2.68028716417,0.,1.011429118555));
#187 = CARTESIAN_POINT('',(-2.478001340459,0.,1.011429118555));
#188 = CARTESIAN_POINT('',(-2.478001340459,0.,1.213714942265));
#189 = CARTESIAN_POINT('',(-2.68028716417,4.642393547217,1.011429118555)
  );
#190 = CARTESIAN_POINT('',(-2.478001340459,4.292024222898,1.011429118555
    ));
#191 = CARTESIAN_POINT('',(-2.478001340459,4.292024222898,1.213714942265
    ));
#192 = CARTESIAN_POINT('',(1.340143582085,2.321196773608,1.011429118555)
  );
#193 = CARTESIAN_POINT('',(1.239000670229,2.146012111449,1.011429118555)
  );
#194 = CARTESIAN_POINT('',(1.239000670229,2.146012111449,1.213714942265)
  );
#195 = CARTESIAN_POINT('',(5.360574328339,6.564810192792E-16,
    1.011429118555));
#196 = CARTESIAN_POINT('',(4.956002680917,6.069352819751E-16,
    1.011429118555));
#197 = CARTESIAN_POINT('',(4.956002680917,6.069352819751E-16,
    1.213714942265));
#198 = CARTESIAN_POINT('',(1.340143582085,-2.321196773608,1.011429118555
    ));
#199 = CARTESIAN_POINT('',(1.239000670229,-2.146012111449,1.011429118555
    ));
#200 = CARTESIAN_POINT('',(1.239000670229,-2.146012111449,1.213714942265
    ));
#201 = CARTESIAN_POINT('',(-2.68028716417,-4.642393547217,1.011429118555
    ));
#202 = CARTESIAN_POINT('',(-2.478001340459,-4.292024222898,
    1.011429118555));
#203 = CARTESIAN_POINT('',(-2.478001340459,-4.292024222898,
    1.213714942265));
#204 = CARTESIAN_POINT('',(-2.68028716417,0.,1.011429118555));
#205 = CARTESIAN_POINT('',(-2.478001340459,0.,1.011429118555));
#206 = CARTESIAN_POINT('',(-2.478001340459,0.,1.213714942265));
#207 = ADVANCED_FACE('',(#208),#223,.T.);
#208 = FACE_BOUND('',#209,.T.);
#209 = EDGE_LOOP('',(#210,#211,#221,#222));
#210 = ORIENTED_EDGE('',*,*,#153,.T.);
#211 = ORIENTED_EDGE('',*,*,#212,.T.);
#212 = EDGE_CURVE('',#154,#106,#213,.T.);
#213 = ( BOUNDED_CURVE() B_SPLINE_CURVE(6,(#214,#215,#216,#217,#218,#219
,#220),.UNSPECIFIED.,.F.,.F.) B_SPLINE_CURVE_WITH_KNOTS((7,7),(
4.712388980385,6.28318530718),.PIECEWISE_BEZIER_KNOTS.) CURVE() 
GEOMETRIC_REPRESENTATION_ITEM() RATIONAL_B_SPLINE_CURVE((1.031393471788,
    1.010025407661,0.997924642725,0.993958444137,0.997924642725,
1.010025407661,1.031393471788)) REPRESENTATION_ITEM('') );
#214 = CARTESIAN_POINT('',(-2.275715516748,0.,6.068574711327));
#215 = CARTESIAN_POINT('',(-2.329793958136,0.,6.068574711327));
#216 = CARTESIAN_POINT('',(-2.382463480032,0.,6.051379536241));
#217 = CARTESIAN_POINT('',(-2.42781817484,0.,6.018391545709));
#218 = CARTESIAN_POINT('',(-2.460806165372,0.,5.973036850901));
#219 = CARTESIAN_POINT('',(-2.478001340459,0.,5.920367329005));
#220 = CARTESIAN_POINT('',(-2.478001340459,0.,5.866288887617));
#221 = ORIENTED_EDGE('',*,*,#105,.F.);
#222 = ORIENTED_EDGE('',*,*,#212,.F.);
#223 = ( BOUNDED_SURFACE() B_SPLINE_SURFACE(2,2,(
    (#224,#225,#226)
    ,(#227,#228,#229)
    ,(#230,#231,#232)
    ,(#233,#234,#235)
    ,(#236,#237,#238)
    ,(#239,#240,#241)
    ,(#242,#243,#244
)),.UNSPECIFIED.,.T.,.F.,.F.) B_SPLINE_SURFACE_WITH_KNOTS((1,2,2,2,2,1),
  (3,3),(-2.094395102393,0.,2.094395102393,4.188790204786,6.28318530718,
    8.377580409573),(4.712388980385,6.28318530718),.UNSPECIFIED.) 
GEOMETRIC_REPRESENTATION_ITEM() RATIONAL_B_SPLINE_SURFACE((
    (1.,0.707106781187,1.)
    ,(0.5,0.353553390593,0.5)
    ,(1.,0.707106781187,1.)
    ,(0.5,0.353553390593,0.5)
    ,(1.,0.707106781187,1.)
    ,(0.5,0.353553390593,0.5)
,(1.,0.707106781187,1.))) REPRESENTATION_ITEM('') SURFACE() );
#224 = CARTESIAN_POINT('',(-2.275715516748,0.,6.068574711327));
#225 = CARTESIAN_POINT('',(-2.478001340459,0.,6.068574711327));
#226 = CARTESIAN_POINT('',(-2.478001340459,0.,5.866288887617));
#227 = CARTESIAN_POINT('',(-2.275715516748,3.94165489858,6.068574711327)
  );
#228 = CARTESIAN_POINT('',(-2.478001340459,4.292024222898,6.068574711327
    ));
#229 = CARTESIAN_POINT('',(-2.478001340459,4.292024222898,5.866288887617
    ));
#230 = CARTESIAN_POINT('',(1.137857758374,1.97082744929,6.068574711327)
  );
#231 = CARTESIAN_POINT('',(1.239000670229,2.146012111449,6.068574711327)
  );
#232 = CARTESIAN_POINT('',(1.239000670229,2.146012111449,5.866288887617)
  );
#233 = CARTESIAN_POINT('',(4.551431033496,5.57389544671E-16,
    6.068574711327));
#234 = CARTESIAN_POINT('',(4.956002680917,6.069352819751E-16,
    6.068574711327));
#235 = CARTESIAN_POINT('',(4.956002680917,6.069352819751E-16,
    5.866288887617));
#236 = CARTESIAN_POINT('',(1.137857758374,-1.97082744929,6.068574711327)
  );
#237 = CARTESIAN_POINT('',(1.239000670229,-2.146012111449,6.068574711327
    ));
#238 = CARTESIAN_POINT('',(1.239000670229,-2.146012111449,5.866288887617
    ));
#239 = CARTESIAN_POINT('',(-2.275715516748,-3.94165489858,6.068574711327
    ));
#240 = CARTESIAN_POINT('',(-2.478001340459,-4.292024222898,
    6.068574711327));
#241 = CARTESIAN_POINT('',(-2.478001340459,-4.292024222898,
    5.866288887617));
#242 = CARTESIAN_POINT('',(-2.275715516748,0.,6.068574711327));
#243 = CARTESIAN_POINT('',(-2.478001340459,0.,6.068574711327));
#244 = CARTESIAN_POINT('',(-2.478001340459,0.,5.866288887617));
#245 = ( GEOMETRIC_REPRESENTATION_CONTEXT(3) 
GLOBAL_UNCERTAINTY_ASSIGNED_CONTEXT((#249)) GLOBAL_UNIT_ASSIGNED_CONTEXT
((#246,#247,#248)) REPRESENTATION_CONTEXT('Context #1',
  '3D Context with UNIT and UNCERTAINTY') );
#246 = ( LENGTH_UNIT() NAMED_UNIT(*) SI_UNIT(.MILLI.,.METRE.) );
#247 = ( NAMED_UNIT(*) PLANE_ANGLE_UNIT() SI_UNIT($,.RADIAN.) );
#248 = ( NAMED_UNIT(*) SI_UNIT($,.STERADIAN.) SOLID_ANGLE_UNIT() );
#249 = UNCERTAINTY_MEASURE_WITH_UNIT(LENGTH_MEASURE(1.E-05),#246,
  'distance_accuracy_value','confusion accuracy');
#250 = PRODUCT_RELATED_PRODUCT_CATEGORY('part',$,(#7));
ENDSEC;
END-ISO-10303-21;
