ISO-10303-21;
HEADER;
FILE_DESCRIPTION(('FreeCAD Model'),'2;1');
FILE_NAME('Open CASCADE Shape Model','2025-04-26T02:56:45',('FreeCAD'),(
    'FreeCAD'),'Open CASCADE STEP processor 7.6','FreeCAD','Unknown');
FILE_SCHEMA(('AUTOMOTIVE_DESIGN { 1 0 10303 214 1 1 1 1 }'));
ENDSEC;
DATA;
#1 = APPLICATION_PROTOCOL_DEFINITION('international standard',
  'automotive_design',2000,#2);
#2 = APPLICATION_CONTEXT(
  'core data for automotive mechanical design processes');
#3 = SHAPE_DEFINITION_REPRESENTATION(#4,#10);
#4 = PRODUCT_DEFINITION_SHAPE('','',#5);
#5 = PRODUCT_DEFINITION('design','',#6,#9);
#6 = PRODUCT_DEFINITION_FORMATION('','',#7);
#7 = PRODUCT('Open CASCADE STEP translator 7.6 1',
  'Open CASCADE STEP translator 7.6 1','',(#8));
#8 = PRODUCT_CONTEXT('',#2,'mechanical');
#9 = PRODUCT_DEFINITION_CONTEXT('part definition',#2,'design');
#10 = ADVANCED_BREP_SHAPE_REPRESENTATION('',(#11,#15),#305);
#11 = AXIS2_PLACEMENT_3D('',#12,#13,#14);
#12 = CARTESIAN_POINT('',(0.,0.,0.));
#13 = DIRECTION('',(0.,0.,1.));
#14 = DIRECTION('',(1.,0.,-0.));
#15 = MANIFOLD_SOLID_BREP('',#16);
#16 = CLOSED_SHELL('',(#17,#65,#113,#161,#178,#203,#224,#249,#270,#295)
  );
#17 = ADVANCED_FACE('',(#18),#54,.T.);
#18 = FACE_BOUND('',#19,.T.);
#19 = EDGE_LOOP('',(#20,#32,#39,#49));
#20 = ORIENTED_EDGE('',*,*,#21,.T.);
#21 = EDGE_CURVE('',#22,#24,#26,.T.);
#22 = VERTEX_POINT('',#23);
#23 = CARTESIAN_POINT('',(2.394178566081E-15,-25.7327950209,
    -6.175870805018));
#24 = VERTEX_POINT('',#25);
#25 = CARTESIAN_POINT('',(3.150504607412E-15,-25.7327950209,
    6.175870805018));
#26 = ( BOUNDED_CURVE() B_SPLINE_CURVE(2,(#27,#28,#29,#30,#31),
.UNSPECIFIED.,.F.,.F.) B_SPLINE_CURVE_WITH_KNOTS((3,2,3),(0.,
1.570796326795,3.14159265359),.PIECEWISE_BEZIER_KNOTS.) CURVE() 
GEOMETRIC_REPRESENTATION_ITEM() RATIONAL_B_SPLINE_CURVE((1.,
0.707106781187,1.,0.707106781187,1.)) REPRESENTATION_ITEM('') );
#27 = CARTESIAN_POINT('',(2.394178566081E-15,-25.7327950209,
    -6.175870805018));
#28 = CARTESIAN_POINT('',(6.175870805018,-25.7327950209,-6.175870805018)
  );
#29 = CARTESIAN_POINT('',(6.175870805018,-25.7327950209,
    -3.781630206657E-16));
#30 = CARTESIAN_POINT('',(6.175870805018,-25.7327950209,6.175870805018)
  );
#31 = CARTESIAN_POINT('',(3.150504607412E-15,-25.7327950209,
    6.175870805018));
#32 = ORIENTED_EDGE('',*,*,#33,.T.);
#33 = EDGE_CURVE('',#24,#34,#36,.T.);
#34 = VERTEX_POINT('',#35);
#35 = CARTESIAN_POINT('',(3.150504607412E-15,-63.81733165185,
    6.175870805018));
#36 = B_SPLINE_CURVE_WITH_KNOTS('',1,(#37,#38),.UNSPECIFIED.,.F.,.F.,(2,
    2),(-37.,-0.),.PIECEWISE_BEZIER_KNOTS.);
#37 = CARTESIAN_POINT('',(3.150504607412E-15,-25.7327950209,
    6.175870805018));
#38 = CARTESIAN_POINT('',(3.150504607412E-15,-63.81733165185,
    6.175870805018));
#39 = ORIENTED_EDGE('',*,*,#40,.F.);
#40 = EDGE_CURVE('',#41,#34,#43,.T.);
#41 = VERTEX_POINT('',#42);
#42 = CARTESIAN_POINT('',(2.394178566081E-15,-63.81733165185,
    -6.175870805018));
#43 = ( BOUNDED_CURVE() B_SPLINE_CURVE(2,(#44,#45,#46,#47,#48),
.UNSPECIFIED.,.F.,.F.) B_SPLINE_CURVE_WITH_KNOTS((3,2,3),(0.,
1.570796326795,3.14159265359),.PIECEWISE_BEZIER_KNOTS.) CURVE() 
GEOMETRIC_REPRESENTATION_ITEM() RATIONAL_B_SPLINE_CURVE((1.,
0.707106781187,1.,0.707106781187,1.)) REPRESENTATION_ITEM('') );
#44 = CARTESIAN_POINT('',(2.394178566081E-15,-63.81733165185,
    -6.175870805018));
#45 = CARTESIAN_POINT('',(6.175870805018,-63.81733165185,-6.175870805018
    ));
#46 = CARTESIAN_POINT('',(6.175870805018,-63.81733165185,
    -3.781630206657E-16));
#47 = CARTESIAN_POINT('',(6.175870805018,-63.81733165185,6.175870805018)
  );
#48 = CARTESIAN_POINT('',(3.150504607412E-15,-63.81733165185,
    6.175870805018));
#49 = ORIENTED_EDGE('',*,*,#50,.F.);
#50 = EDGE_CURVE('',#22,#41,#51,.T.);
#51 = B_SPLINE_CURVE_WITH_KNOTS('',1,(#52,#53),.UNSPECIFIED.,.F.,.F.,(2,
    2),(-37.,0.),.PIECEWISE_BEZIER_KNOTS.);
#52 = CARTESIAN_POINT('',(2.394178566081E-15,-25.7327950209,
    -6.175870805018));
#53 = CARTESIAN_POINT('',(2.394178566081E-15,-63.81733165185,
    -6.175870805018));
#54 = ( BOUNDED_SURFACE() B_SPLINE_SURFACE(2,1,(
    (#55,#56)
    ,(#57,#58)
    ,(#59,#60)
    ,(#61,#62)
,(#63,#64
    )),.UNSPECIFIED.,.F.,.F.,.F.) B_SPLINE_SURFACE_WITH_KNOTS((3,2,3),(2
    ,2),(0.,1.570796326795,3.14159265359),(-37.,0.),
.PIECEWISE_BEZIER_KNOTS.) GEOMETRIC_REPRESENTATION_ITEM() 
RATIONAL_B_SPLINE_SURFACE((
    (1.,1.)
    ,(0.707106781187,0.707106781187)
    ,(1.,1.)
    ,(0.707106781187,0.707106781187)
,(1.,1.))) REPRESENTATION_ITEM('') SURFACE() );
#55 = CARTESIAN_POINT('',(2.394178566081E-15,-25.7327950209,
    -6.175870805018));
#56 = CARTESIAN_POINT('',(2.394178566081E-15,-63.81733165185,
    -6.175870805018));
#57 = CARTESIAN_POINT('',(6.175870805018,-25.7327950209,-6.175870805018)
  );
#58 = CARTESIAN_POINT('',(6.175870805018,-63.81733165185,-6.175870805018
    ));
#59 = CARTESIAN_POINT('',(6.175870805018,-25.7327950209,
    -3.781630206657E-16));
#60 = CARTESIAN_POINT('',(6.175870805018,-63.81733165185,
    -3.781630206657E-16));
#61 = CARTESIAN_POINT('',(6.175870805018,-25.7327950209,6.175870805018)
  );
#62 = CARTESIAN_POINT('',(6.175870805018,-63.81733165185,6.175870805018)
  );
#63 = CARTESIAN_POINT('',(3.150504607412E-15,-25.7327950209,
    6.175870805018));
#64 = CARTESIAN_POINT('',(3.150504607412E-15,-63.81733165185,
    6.175870805018));
#65 = ADVANCED_FACE('',(#66),#102,.T.);
#66 = FACE_BOUND('',#67,.T.);
#67 = EDGE_LOOP('',(#68,#80,#87,#97));
#68 = ORIENTED_EDGE('',*,*,#69,.T.);
#69 = EDGE_CURVE('',#70,#72,#74,.T.);
#70 = VERTEX_POINT('',#71);
#71 = CARTESIAN_POINT('',(2.394178566081E-15,25.732795020909,
    -38.59919253136));
#72 = VERTEX_POINT('',#73);
#73 = CARTESIAN_POINT('',(7.121216324402E-15,25.732795020909,
    38.599192531363));
#74 = ( BOUNDED_CURVE() B_SPLINE_CURVE(2,(#75,#76,#77,#78,#79),
.UNSPECIFIED.,.F.,.F.) B_SPLINE_CURVE_WITH_KNOTS((3,2,3),(0.,
1.570796326795,3.14159265359),.PIECEWISE_BEZIER_KNOTS.) CURVE() 
GEOMETRIC_REPRESENTATION_ITEM() RATIONAL_B_SPLINE_CURVE((1.,
0.707106781187,1.,0.707106781187,1.)) REPRESENTATION_ITEM('') );
#75 = CARTESIAN_POINT('',(2.394178566081E-15,25.732795020909,
    -38.59919253136));
#76 = CARTESIAN_POINT('',(38.599192531363,25.732795020909,
    -38.59919253136));
#77 = CARTESIAN_POINT('',(38.599192531363,25.732795020909,
    -2.36351887916E-15));
#78 = CARTESIAN_POINT('',(38.599192531363,25.732795020909,
    38.599192531363));
#79 = CARTESIAN_POINT('',(7.121216324402E-15,25.732795020909,
    38.599192531363));
#80 = ORIENTED_EDGE('',*,*,#81,.T.);
#81 = EDGE_CURVE('',#72,#82,#84,.T.);
#82 = VERTEX_POINT('',#83);
#83 = CARTESIAN_POINT('',(7.121216324402E-15,-25.7327950209,
    38.599192531363));
#84 = B_SPLINE_CURVE_WITH_KNOTS('',1,(#85,#86),.UNSPECIFIED.,.F.,.F.,(2,
    2),(-87.,-37.),.PIECEWISE_BEZIER_KNOTS.);
#85 = CARTESIAN_POINT('',(7.121216324402E-15,25.732795020909,
    38.599192531363));
#86 = CARTESIAN_POINT('',(7.121216324402E-15,-25.7327950209,
    38.599192531363));
#87 = ORIENTED_EDGE('',*,*,#88,.F.);
#88 = EDGE_CURVE('',#89,#82,#91,.T.);
#89 = VERTEX_POINT('',#90);
#90 = CARTESIAN_POINT('',(2.394178566081E-15,-25.7327950209,
    -38.59919253136));
#91 = ( BOUNDED_CURVE() B_SPLINE_CURVE(2,(#92,#93,#94,#95,#96),
.UNSPECIFIED.,.F.,.F.) B_SPLINE_CURVE_WITH_KNOTS((3,2,3),(0.,
1.570796326795,3.14159265359),.PIECEWISE_BEZIER_KNOTS.) CURVE() 
GEOMETRIC_REPRESENTATION_ITEM() RATIONAL_B_SPLINE_CURVE((1.,
0.707106781187,1.,0.707106781187,1.)) REPRESENTATION_ITEM('') );
#92 = CARTESIAN_POINT('',(2.394178566081E-15,-25.7327950209,
    -38.59919253136));
#93 = CARTESIAN_POINT('',(38.599192531363,-25.7327950209,-38.59919253136
    ));
#94 = CARTESIAN_POINT('',(38.599192531363,-25.7327950209,
    -2.36351887916E-15));
#95 = CARTESIAN_POINT('',(38.599192531363,-25.7327950209,38.599192531363
    ));
#96 = CARTESIAN_POINT('',(7.121216324402E-15,-25.7327950209,
    38.599192531363));
#97 = ORIENTED_EDGE('',*,*,#98,.F.);
#98 = EDGE_CURVE('',#70,#89,#99,.T.);
#99 = B_SPLINE_CURVE_WITH_KNOTS('',1,(#100,#101),.UNSPECIFIED.,.F.,.F.,(
    2,2),(-87.,-37.),.PIECEWISE_BEZIER_KNOTS.);
#100 = CARTESIAN_POINT('',(2.394178566081E-15,25.732795020909,
    -38.59919253136));
#101 = CARTESIAN_POINT('',(2.394178566081E-15,-25.7327950209,
    -38.59919253136));
#102 = ( BOUNDED_SURFACE() B_SPLINE_SURFACE(2,1,(
    (#103,#104)
    ,(#105,#106)
    ,(#107,#108)
    ,(#109,#110)
,(#111,#112
    )),.UNSPECIFIED.,.F.,.F.,.F.) B_SPLINE_SURFACE_WITH_KNOTS((3,2,3),(2
    ,2),(0.,1.570796326795,3.14159265359),(-87.,-37.),
.PIECEWISE_BEZIER_KNOTS.) GEOMETRIC_REPRESENTATION_ITEM() 
RATIONAL_B_SPLINE_SURFACE((
    (1.,1.)
    ,(0.707106781187,0.707106781187)
    ,(1.,1.)
    ,(0.707106781187,0.707106781187)
,(1.,1.))) REPRESENTATION_ITEM('') SURFACE() );
#103 = CARTESIAN_POINT('',(2.394178566081E-15,25.732795020909,
    -38.59919253136));
#104 = CARTESIAN_POINT('',(2.394178566081E-15,-25.7327950209,
    -38.59919253136));
#105 = CARTESIAN_POINT('',(38.599192531363,25.732795020909,
    -38.59919253136));
#106 = CARTESIAN_POINT('',(38.599192531363,-25.7327950209,
    -38.59919253136));
#107 = CARTESIAN_POINT('',(38.599192531363,25.732795020909,
    -2.36351887916E-15));
#108 = CARTESIAN_POINT('',(38.599192531363,-25.7327950209,
    -2.36351887916E-15));
#109 = CARTESIAN_POINT('',(38.599192531363,25.732795020909,
    38.599192531363));
#110 = CARTESIAN_POINT('',(38.599192531363,-25.7327950209,
    38.599192531363));
#111 = CARTESIAN_POINT('',(7.121216324402E-15,25.732795020909,
    38.599192531363));
#112 = CARTESIAN_POINT('',(7.121216324402E-15,-25.7327950209,
    38.599192531363));
#113 = ADVANCED_FACE('',(#114),#150,.T.);
#114 = FACE_BOUND('',#115,.T.);
#115 = EDGE_LOOP('',(#116,#128,#135,#145));
#116 = ORIENTED_EDGE('',*,*,#117,.T.);
#117 = EDGE_CURVE('',#118,#120,#122,.T.);
#118 = VERTEX_POINT('',#119);
#119 = CARTESIAN_POINT('',(2.394178566081E-15,63.817331651854,
    -6.175870805018));
#120 = VERTEX_POINT('',#121);
#121 = CARTESIAN_POINT('',(3.150504607412E-15,63.817331651854,
    6.175870805018));
#122 = ( BOUNDED_CURVE() B_SPLINE_CURVE(2,(#123,#124,#125,#126,#127),
.UNSPECIFIED.,.F.,.F.) B_SPLINE_CURVE_WITH_KNOTS((3,2,3),(0.,
1.570796326795,3.14159265359),.PIECEWISE_BEZIER_KNOTS.) CURVE() 
GEOMETRIC_REPRESENTATION_ITEM() RATIONAL_B_SPLINE_CURVE((1.,
0.707106781187,1.,0.707106781187,1.)) REPRESENTATION_ITEM('') );
#123 = CARTESIAN_POINT('',(2.394178566081E-15,63.817331651854,
    -6.175870805018));
#124 = CARTESIAN_POINT('',(6.175870805018,63.817331651854,
    -6.175870805018));
#125 = CARTESIAN_POINT('',(6.175870805018,63.817331651854,
    -3.781630206657E-16));
#126 = CARTESIAN_POINT('',(6.175870805018,63.817331651854,6.175870805018
    ));
#127 = CARTESIAN_POINT('',(3.150504607412E-15,63.817331651854,
    6.175870805018));
#128 = ORIENTED_EDGE('',*,*,#129,.T.);
#129 = EDGE_CURVE('',#120,#130,#132,.T.);
#130 = VERTEX_POINT('',#131);
#131 = CARTESIAN_POINT('',(3.150504607412E-15,25.732795020909,
    6.175870805018));
#132 = B_SPLINE_CURVE_WITH_KNOTS('',1,(#133,#134),.UNSPECIFIED.,.F.,.F.,
  (2,2),(-124.,-87.),.PIECEWISE_BEZIER_KNOTS.);
#133 = CARTESIAN_POINT('',(3.150504607412E-15,63.817331651854,
    6.175870805018));
#134 = CARTESIAN_POINT('',(3.150504607412E-15,25.732795020909,
    6.175870805018));
#135 = ORIENTED_EDGE('',*,*,#136,.F.);
#136 = EDGE_CURVE('',#137,#130,#139,.T.);
#137 = VERTEX_POINT('',#138);
#138 = CARTESIAN_POINT('',(2.394178566081E-15,25.732795020909,
    -6.175870805018));
#139 = ( BOUNDED_CURVE() B_SPLINE_CURVE(2,(#140,#141,#142,#143,#144),
.UNSPECIFIED.,.F.,.F.) B_SPLINE_CURVE_WITH_KNOTS((3,2,3),(0.,
1.570796326795,3.14159265359),.PIECEWISE_BEZIER_KNOTS.) CURVE() 
GEOMETRIC_REPRESENTATION_ITEM() RATIONAL_B_SPLINE_CURVE((1.,
0.707106781187,1.,0.707106781187,1.)) REPRESENTATION_ITEM('') );
#140 = CARTESIAN_POINT('',(2.394178566081E-15,25.732795020909,
    -6.175870805018));
#141 = CARTESIAN_POINT('',(6.175870805018,25.732795020909,
    -6.175870805018));
#142 = CARTESIAN_POINT('',(6.175870805018,25.732795020909,
    -3.781630206657E-16));
#143 = CARTESIAN_POINT('',(6.175870805018,25.732795020909,6.175870805018
    ));
#144 = CARTESIAN_POINT('',(3.150504607412E-15,25.732795020909,
    6.175870805018));
#145 = ORIENTED_EDGE('',*,*,#146,.F.);
#146 = EDGE_CURVE('',#118,#137,#147,.T.);
#147 = B_SPLINE_CURVE_WITH_KNOTS('',1,(#148,#149),.UNSPECIFIED.,.F.,.F.,
  (2,2),(-124.,-87.),.PIECEWISE_BEZIER_KNOTS.);
#148 = CARTESIAN_POINT('',(2.394178566081E-15,63.817331651854,
    -6.175870805018));
#149 = CARTESIAN_POINT('',(2.394178566081E-15,25.732795020909,
    -6.175870805018));
#150 = ( BOUNDED_SURFACE() B_SPLINE_SURFACE(2,1,(
    (#151,#152)
    ,(#153,#154)
    ,(#155,#156)
    ,(#157,#158)
,(#159,#160
    )),.UNSPECIFIED.,.F.,.F.,.F.) B_SPLINE_SURFACE_WITH_KNOTS((3,2,3),(2
    ,2),(0.,1.570796326795,3.14159265359),(-124.,-87.),
.PIECEWISE_BEZIER_KNOTS.) GEOMETRIC_REPRESENTATION_ITEM() 
RATIONAL_B_SPLINE_SURFACE((
    (1.,1.)
    ,(0.707106781187,0.707106781187)
    ,(1.,1.)
    ,(0.707106781187,0.707106781187)
,(1.,1.))) REPRESENTATION_ITEM('') SURFACE() );
#151 = CARTESIAN_POINT('',(2.394178566081E-15,63.817331651854,
    -6.175870805018));
#152 = CARTESIAN_POINT('',(2.394178566081E-15,25.732795020909,
    -6.175870805018));
#153 = CARTESIAN_POINT('',(6.175870805018,63.817331651854,
    -6.175870805018));
#154 = CARTESIAN_POINT('',(6.175870805018,25.732795020909,
    -6.175870805018));
#155 = CARTESIAN_POINT('',(6.175870805018,63.817331651854,
    -3.781630206657E-16));
#156 = CARTESIAN_POINT('',(6.175870805018,25.732795020909,
    -3.781630206657E-16));
#157 = CARTESIAN_POINT('',(6.175870805018,63.817331651854,6.175870805018
    ));
#158 = CARTESIAN_POINT('',(6.175870805018,25.732795020909,6.175870805018
    ));
#159 = CARTESIAN_POINT('',(3.150504607412E-15,63.817331651854,
    6.175870805018));
#160 = CARTESIAN_POINT('',(3.150504607412E-15,25.732795020909,
    6.175870805018));
#161 = ADVANCED_FACE('',(#162),#173,.F.);
#162 = FACE_BOUND('',#163,.T.);
#163 = EDGE_LOOP('',(#164,#165));
#164 = ORIENTED_EDGE('',*,*,#117,.F.);
#165 = ORIENTED_EDGE('',*,*,#166,.F.);
#166 = EDGE_CURVE('',#120,#118,#167,.T.);
#167 = ( BOUNDED_CURVE() B_SPLINE_CURVE(2,(#168,#169,#170,#171,#172),
.UNSPECIFIED.,.F.,.F.) B_SPLINE_CURVE_WITH_KNOTS((3,2,3),(3.14159265359,
4.712388980385,6.28318530718),.PIECEWISE_BEZIER_KNOTS.) CURVE() 
GEOMETRIC_REPRESENTATION_ITEM() RATIONAL_B_SPLINE_CURVE((1.,
0.707106781187,1.,0.707106781187,1.)) REPRESENTATION_ITEM('') );
#168 = CARTESIAN_POINT('',(3.150504607412E-15,63.817331651854,
    6.175870805018));
#169 = CARTESIAN_POINT('',(-6.175870805018,63.817331651854,
    6.175870805018));
#170 = CARTESIAN_POINT('',(-6.175870805018,63.817331651854,
    1.134489061997E-15));
#171 = CARTESIAN_POINT('',(-6.175870805018,63.817331651854,
    -6.175870805018));
#172 = CARTESIAN_POINT('',(8.815264834184E-16,63.817331651854,
    -6.175870805018));
#173 = B_SPLINE_SURFACE_WITH_KNOTS('',1,1,(
    (#174,#175)
    ,(#176,#177
    )),.UNSPECIFIED.,.F.,.F.,.F.,(2,2),(2,2),(-6.,6.),(-6.,6.),
  .PIECEWISE_BEZIER_KNOTS.);
#174 = CARTESIAN_POINT('',(-6.175870805018,63.817331651854,
    6.175870805018));
#175 = CARTESIAN_POINT('',(6.175870805018,63.817331651854,6.175870805018
    ));
#176 = CARTESIAN_POINT('',(-6.175870805018,63.817331651854,
    -6.175870805018));
#177 = CARTESIAN_POINT('',(6.175870805018,63.817331651854,
    -6.175870805018));
#178 = ADVANCED_FACE('',(#179),#192,.T.);
#179 = FACE_BOUND('',#180,.T.);
#180 = EDGE_LOOP('',(#181,#182,#183,#184));
#181 = ORIENTED_EDGE('',*,*,#129,.F.);
#182 = ORIENTED_EDGE('',*,*,#166,.T.);
#183 = ORIENTED_EDGE('',*,*,#146,.T.);
#184 = ORIENTED_EDGE('',*,*,#185,.F.);
#185 = EDGE_CURVE('',#130,#137,#186,.T.);
#186 = ( BOUNDED_CURVE() B_SPLINE_CURVE(2,(#187,#188,#189,#190,#191),
.UNSPECIFIED.,.F.,.F.) B_SPLINE_CURVE_WITH_KNOTS((3,2,3),(3.14159265359,
4.712388980385,6.28318530718),.PIECEWISE_BEZIER_KNOTS.) CURVE() 
GEOMETRIC_REPRESENTATION_ITEM() RATIONAL_B_SPLINE_CURVE((1.,
0.707106781187,1.,0.707106781187,1.)) REPRESENTATION_ITEM('') );
#187 = CARTESIAN_POINT('',(3.150504607412E-15,25.732795020909,
    6.175870805018));
#188 = CARTESIAN_POINT('',(-6.175870805018,25.732795020909,
    6.175870805018));
#189 = CARTESIAN_POINT('',(-6.175870805018,25.732795020909,
    1.134489061997E-15));
#190 = CARTESIAN_POINT('',(-6.175870805018,25.732795020909,
    -6.175870805018));
#191 = CARTESIAN_POINT('',(8.815264834184E-16,25.732795020909,
    -6.175870805018));
#192 = ( BOUNDED_SURFACE() B_SPLINE_SURFACE(2,1,(
    (#193,#194)
    ,(#195,#196)
    ,(#197,#198)
    ,(#199,#200)
,(#201,#202
    )),.UNSPECIFIED.,.F.,.F.,.F.) B_SPLINE_SURFACE_WITH_KNOTS((3,2,3),(2
    ,2),(3.14159265359,4.712388980385,6.28318530718),(-124.,-87.),
.PIECEWISE_BEZIER_KNOTS.) GEOMETRIC_REPRESENTATION_ITEM() 
RATIONAL_B_SPLINE_SURFACE((
    (1.,1.)
    ,(0.707106781187,0.707106781187)
    ,(1.,1.)
    ,(0.707106781187,0.707106781187)
,(1.,1.))) REPRESENTATION_ITEM('') SURFACE() );
#193 = CARTESIAN_POINT('',(3.150504607412E-15,63.817331651854,
    6.175870805018));
#194 = CARTESIAN_POINT('',(3.150504607412E-15,25.732795020909,
    6.175870805018));
#195 = CARTESIAN_POINT('',(-6.175870805018,63.817331651854,
    6.175870805018));
#196 = CARTESIAN_POINT('',(-6.175870805018,25.732795020909,
    6.175870805018));
#197 = CARTESIAN_POINT('',(-6.175870805018,63.817331651854,
    1.134489061997E-15));
#198 = CARTESIAN_POINT('',(-6.175870805018,25.732795020909,
    1.134489061997E-15));
#199 = CARTESIAN_POINT('',(-6.175870805018,63.817331651854,
    -6.175870805018));
#200 = CARTESIAN_POINT('',(-6.175870805018,25.732795020909,
    -6.175870805018));
#201 = CARTESIAN_POINT('',(8.815264834184E-16,63.817331651854,
    -6.175870805018));
#202 = CARTESIAN_POINT('',(8.815264834184E-16,25.732795020909,
    -6.175870805018));
#203 = ADVANCED_FACE('',(#204,#215),#219,.F.);
#204 = FACE_BOUND('',#205,.T.);
#205 = EDGE_LOOP('',(#206,#207));
#206 = ORIENTED_EDGE('',*,*,#69,.F.);
#207 = ORIENTED_EDGE('',*,*,#208,.F.);
#208 = EDGE_CURVE('',#72,#70,#209,.T.);
#209 = ( BOUNDED_CURVE() B_SPLINE_CURVE(2,(#210,#211,#212,#213,#214),
.UNSPECIFIED.,.F.,.F.) B_SPLINE_CURVE_WITH_KNOTS((3,2,3),(3.14159265359,
4.712388980385,6.28318530718),.PIECEWISE_BEZIER_KNOTS.) CURVE() 
GEOMETRIC_REPRESENTATION_ITEM() RATIONAL_B_SPLINE_CURVE((1.,
0.707106781187,1.,0.707106781187,1.)) REPRESENTATION_ITEM('') );
#210 = CARTESIAN_POINT('',(7.121216324402E-15,25.732795020909,
    38.599192531363));
#211 = CARTESIAN_POINT('',(-38.59919253136,25.732795020909,
    38.599192531363));
#212 = CARTESIAN_POINT('',(-38.59919253136,25.732795020909,
    7.090556637481E-15));
#213 = CARTESIAN_POINT('',(-38.59919253136,25.732795020909,
    -38.59919253136));
#214 = CARTESIAN_POINT('',(-7.05989695056E-15,25.732795020909,
    -38.59919253136));
#215 = FACE_BOUND('',#216,.T.);
#216 = EDGE_LOOP('',(#217,#218));
#217 = ORIENTED_EDGE('',*,*,#136,.T.);
#218 = ORIENTED_EDGE('',*,*,#185,.T.);
#219 = B_SPLINE_SURFACE_WITH_KNOTS('',1,1,(
    (#220,#221)
    ,(#222,#223
    )),.UNSPECIFIED.,.F.,.F.,.F.,(2,2),(2,2),(-37.5,37.5),(-31.5,43.5),
  .PIECEWISE_BEZIER_KNOTS.);
#220 = CARTESIAN_POINT('',(-38.59919253136,25.732795020909,
    38.599192531363));
#221 = CARTESIAN_POINT('',(38.599192531363,25.732795020909,
    38.599192531363));
#222 = CARTESIAN_POINT('',(-38.59919253136,25.732795020909,
    -38.59919253136));
#223 = CARTESIAN_POINT('',(38.599192531363,25.732795020909,
    -38.59919253136));
#224 = ADVANCED_FACE('',(#225),#238,.T.);
#225 = FACE_BOUND('',#226,.T.);
#226 = EDGE_LOOP('',(#227,#228,#229,#230));
#227 = ORIENTED_EDGE('',*,*,#81,.F.);
#228 = ORIENTED_EDGE('',*,*,#208,.T.);
#229 = ORIENTED_EDGE('',*,*,#98,.T.);
#230 = ORIENTED_EDGE('',*,*,#231,.F.);
#231 = EDGE_CURVE('',#82,#89,#232,.T.);
#232 = ( BOUNDED_CURVE() B_SPLINE_CURVE(2,(#233,#234,#235,#236,#237),
.UNSPECIFIED.,.F.,.F.) B_SPLINE_CURVE_WITH_KNOTS((3,2,3),(3.14159265359,
4.712388980385,6.28318530718),.PIECEWISE_BEZIER_KNOTS.) CURVE() 
GEOMETRIC_REPRESENTATION_ITEM() RATIONAL_B_SPLINE_CURVE((1.,
0.707106781187,1.,0.707106781187,1.)) REPRESENTATION_ITEM('') );
#233 = CARTESIAN_POINT('',(7.121216324402E-15,-25.7327950209,
    38.599192531363));
#234 = CARTESIAN_POINT('',(-38.59919253136,-25.7327950209,
    38.599192531363));
#235 = CARTESIAN_POINT('',(-38.59919253136,-25.7327950209,
    7.090556637481E-15));
#236 = CARTESIAN_POINT('',(-38.59919253136,-25.7327950209,
    -38.59919253136));
#237 = CARTESIAN_POINT('',(-7.05989695056E-15,-25.7327950209,
    -38.59919253136));
#238 = ( BOUNDED_SURFACE() B_SPLINE_SURFACE(2,1,(
    (#239,#240)
    ,(#241,#242)
    ,(#243,#244)
    ,(#245,#246)
,(#247,#248
    )),.UNSPECIFIED.,.F.,.F.,.F.) B_SPLINE_SURFACE_WITH_KNOTS((3,2,3),(2
    ,2),(3.14159265359,4.712388980385,6.28318530718),(-87.,-37.),
.PIECEWISE_BEZIER_KNOTS.) GEOMETRIC_REPRESENTATION_ITEM() 
RATIONAL_B_SPLINE_SURFACE((
    (1.,1.)
    ,(0.707106781187,0.707106781187)
    ,(1.,1.)
    ,(0.707106781187,0.707106781187)
,(1.,1.))) REPRESENTATION_ITEM('') SURFACE() );
#239 = CARTESIAN_POINT('',(7.121216324402E-15,25.732795020909,
    38.599192531363));
#240 = CARTESIAN_POINT('',(7.121216324402E-15,-25.7327950209,
    38.599192531363));
#241 = CARTESIAN_POINT('',(-38.59919253136,25.732795020909,
    38.599192531363));
#242 = CARTESIAN_POINT('',(-38.59919253136,-25.7327950209,
    38.599192531363));
#243 = CARTESIAN_POINT('',(-38.59919253136,25.732795020909,
    7.090556637481E-15));
#244 = CARTESIAN_POINT('',(-38.59919253136,-25.7327950209,
    7.090556637481E-15));
#245 = CARTESIAN_POINT('',(-38.59919253136,25.732795020909,
    -38.59919253136));
#246 = CARTESIAN_POINT('',(-38.59919253136,-25.7327950209,
    -38.59919253136));
#247 = CARTESIAN_POINT('',(-7.05989695056E-15,25.732795020909,
    -38.59919253136));
#248 = CARTESIAN_POINT('',(-7.05989695056E-15,-25.7327950209,
    -38.59919253136));
#249 = ADVANCED_FACE('',(#250,#261),#265,.F.);
#250 = FACE_BOUND('',#251,.T.);
#251 = EDGE_LOOP('',(#252,#253));
#252 = ORIENTED_EDGE('',*,*,#21,.F.);
#253 = ORIENTED_EDGE('',*,*,#254,.F.);
#254 = EDGE_CURVE('',#24,#22,#255,.T.);
#255 = ( BOUNDED_CURVE() B_SPLINE_CURVE(2,(#256,#257,#258,#259,#260),
.UNSPECIFIED.,.F.,.F.) B_SPLINE_CURVE_WITH_KNOTS((3,2,3),(3.14159265359,
4.712388980385,6.28318530718),.PIECEWISE_BEZIER_KNOTS.) CURVE() 
GEOMETRIC_REPRESENTATION_ITEM() RATIONAL_B_SPLINE_CURVE((1.,
0.707106781187,1.,0.707106781187,1.)) REPRESENTATION_ITEM('') );
#256 = CARTESIAN_POINT('',(3.150504607412E-15,-25.7327950209,
    6.175870805018));
#257 = CARTESIAN_POINT('',(-6.175870805018,-25.7327950209,6.175870805018
    ));
#258 = CARTESIAN_POINT('',(-6.175870805018,-25.7327950209,
    1.134489061997E-15));
#259 = CARTESIAN_POINT('',(-6.175870805018,-25.7327950209,
    -6.175870805018));
#260 = CARTESIAN_POINT('',(8.815264834184E-16,-25.7327950209,
    -6.175870805018));
#261 = FACE_BOUND('',#262,.T.);
#262 = EDGE_LOOP('',(#263,#264));
#263 = ORIENTED_EDGE('',*,*,#88,.T.);
#264 = ORIENTED_EDGE('',*,*,#231,.T.);
#265 = B_SPLINE_SURFACE_WITH_KNOTS('',1,1,(
    (#266,#267)
    ,(#268,#269
    )),.UNSPECIFIED.,.F.,.F.,.F.,(2,2),(2,2),(-37.5,37.5),(-31.5,43.5),
  .PIECEWISE_BEZIER_KNOTS.);
#266 = CARTESIAN_POINT('',(-38.59919253136,-25.7327950209,
    -38.59919253136));
#267 = CARTESIAN_POINT('',(38.599192531363,-25.7327950209,
    -38.59919253136));
#268 = CARTESIAN_POINT('',(-38.59919253136,-25.7327950209,
    38.599192531363));
#269 = CARTESIAN_POINT('',(38.599192531363,-25.7327950209,
    38.599192531363));
#270 = ADVANCED_FACE('',(#271),#284,.T.);
#271 = FACE_BOUND('',#272,.T.);
#272 = EDGE_LOOP('',(#273,#274,#275,#276));
#273 = ORIENTED_EDGE('',*,*,#33,.F.);
#274 = ORIENTED_EDGE('',*,*,#254,.T.);
#275 = ORIENTED_EDGE('',*,*,#50,.T.);
#276 = ORIENTED_EDGE('',*,*,#277,.F.);
#277 = EDGE_CURVE('',#34,#41,#278,.T.);
#278 = ( BOUNDED_CURVE() B_SPLINE_CURVE(2,(#279,#280,#281,#282,#283),
.UNSPECIFIED.,.F.,.F.) B_SPLINE_CURVE_WITH_KNOTS((3,2,3),(3.14159265359,
4.712388980385,6.28318530718),.PIECEWISE_BEZIER_KNOTS.) CURVE() 
GEOMETRIC_REPRESENTATION_ITEM() RATIONAL_B_SPLINE_CURVE((1.,
0.707106781187,1.,0.707106781187,1.)) REPRESENTATION_ITEM('') );
#279 = CARTESIAN_POINT('',(3.150504607412E-15,-63.81733165185,
    6.175870805018));
#280 = CARTESIAN_POINT('',(-6.175870805018,-63.81733165185,
    6.175870805018));
#281 = CARTESIAN_POINT('',(-6.175870805018,-63.81733165185,
    1.134489061997E-15));
#282 = CARTESIAN_POINT('',(-6.175870805018,-63.81733165185,
    -6.175870805018));
#283 = CARTESIAN_POINT('',(8.815264834184E-16,-63.81733165185,
    -6.175870805018));
#284 = ( BOUNDED_SURFACE() B_SPLINE_SURFACE(2,1,(
    (#285,#286)
    ,(#287,#288)
    ,(#289,#290)
    ,(#291,#292)
,(#293,#294
    )),.UNSPECIFIED.,.F.,.F.,.F.) B_SPLINE_SURFACE_WITH_KNOTS((3,2,3),(2
    ,2),(3.14159265359,4.712388980385,6.28318530718),(-37.,0.),
.PIECEWISE_BEZIER_KNOTS.) GEOMETRIC_REPRESENTATION_ITEM() 
RATIONAL_B_SPLINE_SURFACE((
    (1.,1.)
    ,(0.707106781187,0.707106781187)
    ,(1.,1.)
    ,(0.707106781187,0.707106781187)
,(1.,1.))) REPRESENTATION_ITEM('') SURFACE() );
#285 = CARTESIAN_POINT('',(3.150504607412E-15,-25.7327950209,
    6.175870805018));
#286 = CARTESIAN_POINT('',(3.150504607412E-15,-63.81733165185,
    6.175870805018));
#287 = CARTESIAN_POINT('',(-6.175870805018,-25.7327950209,6.175870805018
    ));
#288 = CARTESIAN_POINT('',(-6.175870805018,-63.81733165185,
    6.175870805018));
#289 = CARTESIAN_POINT('',(-6.175870805018,-25.7327950209,
    1.134489061997E-15));
#290 = CARTESIAN_POINT('',(-6.175870805018,-63.81733165185,
    1.134489061997E-15));
#291 = CARTESIAN_POINT('',(-6.175870805018,-25.7327950209,
    -6.175870805018));
#292 = CARTESIAN_POINT('',(-6.175870805018,-63.81733165185,
    -6.175870805018));
#293 = CARTESIAN_POINT('',(8.815264834184E-16,-25.7327950209,
    -6.175870805018));
#294 = CARTESIAN_POINT('',(8.815264834184E-16,-63.81733165185,
    -6.175870805018));
#295 = ADVANCED_FACE('',(#296),#300,.F.);
#296 = FACE_BOUND('',#297,.T.);
#297 = EDGE_LOOP('',(#298,#299));
#298 = ORIENTED_EDGE('',*,*,#40,.T.);
#299 = ORIENTED_EDGE('',*,*,#277,.T.);
#300 = B_SPLINE_SURFACE_WITH_KNOTS('',1,1,(
    (#301,#302)
    ,(#303,#304
    )),.UNSPECIFIED.,.F.,.F.,.F.,(2,2),(2,2),(-6.,6.),(-6.,6.),
  .PIECEWISE_BEZIER_KNOTS.);
#301 = CARTESIAN_POINT('',(-6.175870805018,-63.81733165185,
    -6.175870805018));
#302 = CARTESIAN_POINT('',(6.175870805018,-63.81733165185,
    -6.175870805018));
#303 = CARTESIAN_POINT('',(-6.175870805018,-63.81733165185,
    6.175870805018));
#304 = CARTESIAN_POINT('',(6.175870805018,-63.81733165185,6.175870805018
    ));
#305 = ( GEOMETRIC_REPRESENTATION_CONTEXT(3) 
GLOBAL_UNCERTAINTY_ASSIGNED_CONTEXT((#309)) GLOBAL_UNIT_ASSIGNED_CONTEXT
((#306,#307,#308)) REPRESENTATION_CONTEXT('Context #1',
  '3D Context with UNIT and UNCERTAINTY') );
#306 = ( LENGTH_UNIT() NAMED_UNIT(*) SI_UNIT(.MILLI.,.METRE.) );
#307 = ( NAMED_UNIT(*) PLANE_ANGLE_UNIT() SI_UNIT($,.RADIAN.) );
#308 = ( NAMED_UNIT(*) SI_UNIT($,.STERADIAN.) SOLID_ANGLE_UNIT() );
#309 = UNCERTAINTY_MEASURE_WITH_UNIT(LENGTH_MEASURE(1.E-07),#306,
  'distance_accuracy_value','confusion accuracy');
#310 = PRODUCT_RELATED_PRODUCT_CATEGORY('part',$,(#7));
ENDSEC;
END-ISO-10303-21;
