ISO-10303-21;
HEADER;
FILE_DESCRIPTION(('FreeCAD Model'),'2;1');
FILE_NAME('Open CASCADE Shape Model','2025-04-25T17:14:01',('FreeCAD'),(
    'FreeCAD'),'Open CASCADE STEP processor 7.6','FreeCAD','Unknown');
FILE_SCHEMA(('AUTOMOTIVE_DESIGN { 1 0 10303 214 1 1 1 1 }'));
ENDSEC;
DATA;
#1 = APPLICATION_PROTOCOL_DEFINITION('international standard',
  'automotive_design',2000,#2);
#2 = APPLICATION_CONTEXT(
  'core data for automotive mechanical design processes');
#3 = SHAPE_DEFINITION_REPRESENTATION(#4,#10);
#4 = PRODUCT_DEFINITION_SHAPE('','',#5);
#5 = PRODUCT_DEFINITION('design','',#6,#9);
#6 = PRODUCT_DEFINITION_FORMATION('','',#7);
#7 = PRODUCT('Open CASCADE STEP translator 7.6 1',
  'Open CASCADE STEP translator 7.6 1','',(#8));
#8 = PRODUCT_CONTEXT('',#2,'mechanical');
#9 = PRODUCT_DEFINITION_CONTEXT('part definition',#2,'design');
#10 = ADVANCED_BREP_SHAPE_REPRESENTATION('',(#11,#15),#205);
#11 = AXIS2_PLACEMENT_3D('',#12,#13,#14);
#12 = CARTESIAN_POINT('',(0.,0.,0.));
#13 = DIRECTION('',(0.,0.,1.));
#14 = DIRECTION('',(1.,0.,-0.));
#15 = MANIFOLD_SOLID_BREP('',#16);
#16 = CLOSED_SHELL('',(#17,#67,#117,#143,#169,#187));
#17 = ADVANCED_FACE('',(#18,#40),#62,.T.);
#18 = FACE_BOUND('',#19,.T.);
#19 = EDGE_LOOP('',(#20,#32));
#20 = ORIENTED_EDGE('',*,*,#21,.T.);
#21 = EDGE_CURVE('',#22,#24,#26,.T.);
#22 = VERTEX_POINT('',#23);
#23 = CARTESIAN_POINT('',(63.435553159299,-8.103720066945E-07,
    -1.587118763524E-02));
#24 = VERTEX_POINT('',#25);
#25 = CARTESIAN_POINT('',(88.63890435707,-8.10372003608E-07,
    -1.587118763524E-02));
#26 = ( BOUNDED_CURVE() B_SPLINE_CURVE(2,(#27,#28,#29,#30,#31),
.UNSPECIFIED.,.F.,.F.) B_SPLINE_CURVE_WITH_KNOTS((3,2,3),(0.,
1.570796326795,3.14159265359),.PIECEWISE_BEZIER_KNOTS.) CURVE() 
GEOMETRIC_REPRESENTATION_ITEM() RATIONAL_B_SPLINE_CURVE((1.,
0.707106781187,1.,0.707106781187,1.)) REPRESENTATION_ITEM('') );
#27 = CARTESIAN_POINT('',(63.435553159299,-8.103720051512E-07,
    -1.587118763524E-02));
#28 = CARTESIAN_POINT('',(63.435553159299,12.601674788513,
    -1.587118763524E-02));
#29 = CARTESIAN_POINT('',(76.037228758185,12.601674788513,
    -1.587118763524E-02));
#30 = CARTESIAN_POINT('',(88.63890435707,12.601674788513,
    -1.587118763524E-02));
#31 = CARTESIAN_POINT('',(88.63890435707,-8.10372003608E-07,
    -1.587118763524E-02));
#32 = ORIENTED_EDGE('',*,*,#33,.T.);
#33 = EDGE_CURVE('',#24,#22,#34,.T.);
#34 = ( BOUNDED_CURVE() B_SPLINE_CURVE(2,(#35,#36,#37,#38,#39),
.UNSPECIFIED.,.F.,.F.) B_SPLINE_CURVE_WITH_KNOTS((3,2,3),(3.14159265359,
4.712388980385,6.28318530718),.PIECEWISE_BEZIER_KNOTS.) CURVE() 
GEOMETRIC_REPRESENTATION_ITEM() RATIONAL_B_SPLINE_CURVE((1.,
0.707106781187,1.,0.707106781187,1.)) REPRESENTATION_ITEM('') );
#35 = CARTESIAN_POINT('',(88.63890435707,-8.10372003608E-07,
    -1.587118763524E-02));
#36 = CARTESIAN_POINT('',(88.63890435707,-12.60167640925,
    -1.587118763524E-02));
#37 = CARTESIAN_POINT('',(76.037228758185,-12.60167640925,
    -1.587118763524E-02));
#38 = CARTESIAN_POINT('',(63.435553159299,-12.60167640925,
    -1.587118763524E-02));
#39 = CARTESIAN_POINT('',(63.435553159299,-8.103720082377E-07,
    -1.587118763524E-02));
#40 = FACE_BOUND('',#41,.T.);
#41 = EDGE_LOOP('',(#42,#54));
#42 = ORIENTED_EDGE('',*,*,#43,.F.);
#43 = EDGE_CURVE('',#44,#46,#48,.T.);
#44 = VERTEX_POINT('',#45);
#45 = CARTESIAN_POINT('',(87.570965746995,-8.10372004445E-07,
    -1.587118763524E-02));
#46 = VERTEX_POINT('',#47);
#47 = CARTESIAN_POINT('',(64.503491769374,-8.103720065637E-07,
    -1.587118763524E-02));
#48 = ( BOUNDED_CURVE() B_SPLINE_CURVE(2,(#49,#50,#51,#52,#53),
.UNSPECIFIED.,.F.,.F.) B_SPLINE_CURVE_WITH_KNOTS((3,2,3),(3.14159265359,
4.712388980385,6.28318530718),.PIECEWISE_BEZIER_KNOTS.) CURVE() 
GEOMETRIC_REPRESENTATION_ITEM() RATIONAL_B_SPLINE_CURVE((1.,
0.707106781187,1.,0.707106781187,1.)) REPRESENTATION_ITEM('') );
#49 = CARTESIAN_POINT('',(87.570965746995,-8.10372004445E-07,
    -1.587118763524E-02));
#50 = CARTESIAN_POINT('',(87.570965746995,-11.53373779918,
    -1.587118763524E-02));
#51 = CARTESIAN_POINT('',(76.037228758185,-11.53373779918,
    -1.587118763524E-02));
#52 = CARTESIAN_POINT('',(64.503491769374,-11.53373779918,
    -1.587118763524E-02));
#53 = CARTESIAN_POINT('',(64.503491769374,-8.103720086824E-07,
    -1.587118763524E-02));
#54 = ORIENTED_EDGE('',*,*,#55,.F.);
#55 = EDGE_CURVE('',#46,#44,#56,.T.);
#56 = ( BOUNDED_CURVE() B_SPLINE_CURVE(2,(#57,#58,#59,#60,#61),
.UNSPECIFIED.,.F.,.F.) B_SPLINE_CURVE_WITH_KNOTS((3,2,3),(0.,
1.570796326795,3.14159265359),.PIECEWISE_BEZIER_KNOTS.) CURVE() 
GEOMETRIC_REPRESENTATION_ITEM() RATIONAL_B_SPLINE_CURVE((1.,
0.707106781187,1.,0.707106781187,1.)) REPRESENTATION_ITEM('') );
#57 = CARTESIAN_POINT('',(64.503491769374,-8.103720058575E-07,
    -1.587118763524E-02));
#58 = CARTESIAN_POINT('',(64.503491769374,11.533736178438,
    -1.587118763524E-02));
#59 = CARTESIAN_POINT('',(76.037228758185,11.533736178438,
    -1.587118763524E-02));
#60 = CARTESIAN_POINT('',(87.570965746995,11.533736178438,
    -1.587118763524E-02));
#61 = CARTESIAN_POINT('',(87.570965746995,-8.10372004445E-07,
    -1.587118763524E-02));
#62 = B_SPLINE_SURFACE_WITH_KNOTS('',1,1,(
    (#63,#64)
    ,(#65,#66
    )),.UNSPECIFIED.,.F.,.F.,.F.,(2,2),(2,2),(34.0720959723,
    57.6720959723),(-11.80000000002,11.799999999976),
  .PIECEWISE_BEZIER_KNOTS.);
#63 = CARTESIAN_POINT('',(63.435553159299,12.601674788513,
    -1.587118763524E-02));
#64 = CARTESIAN_POINT('',(63.435553159299,-12.60167640925,
    -1.587118763524E-02));
#65 = CARTESIAN_POINT('',(88.63890435707,12.601674788513,
    -1.587118763524E-02));
#66 = CARTESIAN_POINT('',(88.63890435707,-12.60167640925,
    -1.587118763524E-02));
#67 = ADVANCED_FACE('',(#68,#90),#112,.T.);
#68 = FACE_BOUND('',#69,.T.);
#69 = EDGE_LOOP('',(#70,#82));
#70 = ORIENTED_EDGE('',*,*,#71,.T.);
#71 = EDGE_CURVE('',#72,#74,#76,.T.);
#72 = VERTEX_POINT('',#73);
#73 = CARTESIAN_POINT('',(88.63890435707,-8.103720059228E-07,
    1.05206742244));
#74 = VERTEX_POINT('',#75);
#75 = CARTESIAN_POINT('',(63.435553159299,-8.10372003608E-07,
    1.05206742244));
#76 = ( BOUNDED_CURVE() B_SPLINE_CURVE(2,(#77,#78,#79,#80,#81),
.UNSPECIFIED.,.F.,.F.) B_SPLINE_CURVE_WITH_KNOTS((3,2,3),(
    1.367545267204E-50,1.570796326795,3.14159265359),
.PIECEWISE_BEZIER_KNOTS.) CURVE() GEOMETRIC_REPRESENTATION_ITEM() 
RATIONAL_B_SPLINE_CURVE((1.,0.707106781187,1.,0.707106781187,1.)) 
REPRESENTATION_ITEM('') );
#77 = CARTESIAN_POINT('',(88.63890435707,-8.103720051512E-07,
    1.05206742244));
#78 = CARTESIAN_POINT('',(88.63890435707,12.601674788513,1.05206742244)
  );
#79 = CARTESIAN_POINT('',(76.037228758185,12.601674788513,1.05206742244)
  );
#80 = CARTESIAN_POINT('',(63.435553159299,12.601674788513,1.05206742244)
  );
#81 = CARTESIAN_POINT('',(63.435553159299,-8.10372003608E-07,
    1.05206742244));
#82 = ORIENTED_EDGE('',*,*,#83,.T.);
#83 = EDGE_CURVE('',#74,#72,#84,.T.);
#84 = ( BOUNDED_CURVE() B_SPLINE_CURVE(2,(#85,#86,#87,#88,#89),
.UNSPECIFIED.,.F.,.F.) B_SPLINE_CURVE_WITH_KNOTS((3,2,3),(3.14159265359,
4.712388980385,6.28318530718),.PIECEWISE_BEZIER_KNOTS.) CURVE() 
GEOMETRIC_REPRESENTATION_ITEM() RATIONAL_B_SPLINE_CURVE((1.,
0.707106781187,1.,0.707106781187,1.)) REPRESENTATION_ITEM('') );
#85 = CARTESIAN_POINT('',(63.435553159299,-8.10372003608E-07,
    1.05206742244));
#86 = CARTESIAN_POINT('',(63.435553159299,-12.60167640925,1.05206742244)
  );
#87 = CARTESIAN_POINT('',(76.037228758185,-12.60167640925,1.05206742244)
  );
#88 = CARTESIAN_POINT('',(88.63890435707,-12.60167640925,1.05206742244)
  );
#89 = CARTESIAN_POINT('',(88.63890435707,-8.103720082377E-07,
    1.05206742244));
#90 = FACE_BOUND('',#91,.T.);
#91 = EDGE_LOOP('',(#92,#104));
#92 = ORIENTED_EDGE('',*,*,#93,.F.);
#93 = EDGE_CURVE('',#94,#96,#98,.T.);
#94 = VERTEX_POINT('',#95);
#95 = CARTESIAN_POINT('',(64.503491769374,-8.10372004445E-07,
    1.05206742244));
#96 = VERTEX_POINT('',#97);
#97 = CARTESIAN_POINT('',(87.570965746995,-8.103720072699E-07,
    1.05206742244));
#98 = ( BOUNDED_CURVE() B_SPLINE_CURVE(2,(#99,#100,#101,#102,#103),
.UNSPECIFIED.,.F.,.F.) B_SPLINE_CURVE_WITH_KNOTS((3,2,3),(3.14159265359,
4.712388980385,6.28318530718),.PIECEWISE_BEZIER_KNOTS.) CURVE() 
GEOMETRIC_REPRESENTATION_ITEM() RATIONAL_B_SPLINE_CURVE((1.,
0.707106781187,1.,0.707106781187,1.)) REPRESENTATION_ITEM('') );
#99 = CARTESIAN_POINT('',(64.503491769374,-8.10372004445E-07,
    1.05206742244));
#100 = CARTESIAN_POINT('',(64.503491769374,-11.53373779918,1.05206742244
    ));
#101 = CARTESIAN_POINT('',(76.037228758185,-11.53373779918,1.05206742244
    ));
#102 = CARTESIAN_POINT('',(87.570965746995,-11.53373779918,1.05206742244
    ));
#103 = CARTESIAN_POINT('',(87.570965746995,-8.103720086824E-07,
    1.05206742244));
#104 = ORIENTED_EDGE('',*,*,#105,.F.);
#105 = EDGE_CURVE('',#96,#94,#106,.T.);
#106 = ( BOUNDED_CURVE() B_SPLINE_CURVE(2,(#107,#108,#109,#110,#111),
.UNSPECIFIED.,.F.,.F.) B_SPLINE_CURVE_WITH_KNOTS((3,2,3),(0.,
1.570796326795,3.14159265359),.PIECEWISE_BEZIER_KNOTS.) CURVE() 
GEOMETRIC_REPRESENTATION_ITEM() RATIONAL_B_SPLINE_CURVE((1.,
0.707106781187,1.,0.707106781187,1.)) REPRESENTATION_ITEM('') );
#107 = CARTESIAN_POINT('',(87.570965746995,-8.103720058575E-07,
    1.05206742244));
#108 = CARTESIAN_POINT('',(87.570965746995,11.533736178438,1.05206742244
    ));
#109 = CARTESIAN_POINT('',(76.037228758185,11.533736178438,1.05206742244
    ));
#110 = CARTESIAN_POINT('',(64.503491769374,11.533736178438,1.05206742244
    ));
#111 = CARTESIAN_POINT('',(64.503491769374,-8.10372004445E-07,
    1.05206742244));
#112 = B_SPLINE_SURFACE_WITH_KNOTS('',1,1,(
    (#113,#114)
    ,(#115,#116
    )),.UNSPECIFIED.,.F.,.F.,.F.,(2,2),(2,2),(34.0720959723,
    57.6720959723),(-11.80000000002,11.799999999976),
  .PIECEWISE_BEZIER_KNOTS.);
#113 = CARTESIAN_POINT('',(88.63890435707,12.601674788513,1.05206742244)
  );
#114 = CARTESIAN_POINT('',(88.63890435707,-12.60167640925,1.05206742244)
  );
#115 = CARTESIAN_POINT('',(63.435553159299,12.601674788513,1.05206742244
    ));
#116 = CARTESIAN_POINT('',(63.435553159299,-12.60167640925,1.05206742244
    ));
#117 = ADVANCED_FACE('',(#118),#132,.T.);
#118 = FACE_BOUND('',#119,.T.);
#119 = EDGE_LOOP('',(#120,#125,#126,#131));
#120 = ORIENTED_EDGE('',*,*,#121,.T.);
#121 = EDGE_CURVE('',#24,#72,#122,.T.);
#122 = B_SPLINE_CURVE_WITH_KNOTS('',1,(#123,#124),.UNSPECIFIED.,.F.,.F.,
  (2,2),(0.,1.),.PIECEWISE_BEZIER_KNOTS.);
#123 = CARTESIAN_POINT('',(88.63890435707,-8.10372003608E-07,
    -1.587118763524E-02));
#124 = CARTESIAN_POINT('',(88.63890435707,-8.10372003608E-07,
    1.05206742244));
#125 = ORIENTED_EDGE('',*,*,#83,.F.);
#126 = ORIENTED_EDGE('',*,*,#127,.F.);
#127 = EDGE_CURVE('',#22,#74,#128,.T.);
#128 = B_SPLINE_CURVE_WITH_KNOTS('',1,(#129,#130),.UNSPECIFIED.,.F.,.F.,
  (2,2),(0.,1.),.PIECEWISE_BEZIER_KNOTS.);
#129 = CARTESIAN_POINT('',(63.435553159299,-8.103720051512E-07,
    -1.587118763524E-02));
#130 = CARTESIAN_POINT('',(63.435553159299,-8.103720051512E-07,
    1.05206742244));
#131 = ORIENTED_EDGE('',*,*,#33,.F.);
#132 = ( BOUNDED_SURFACE() B_SPLINE_SURFACE(2,1,(
    (#133,#134)
    ,(#135,#136)
    ,(#137,#138)
    ,(#139,#140)
,(#141,#142
    )),.UNSPECIFIED.,.F.,.F.,.F.) B_SPLINE_SURFACE_WITH_KNOTS((3,2,3),(2
    ,2),(3.14159265359,4.712388980385,6.28318530718),(0.4,1.4),
.PIECEWISE_BEZIER_KNOTS.) GEOMETRIC_REPRESENTATION_ITEM() 
RATIONAL_B_SPLINE_SURFACE((
    (1.,1.)
    ,(0.707106781187,0.707106781187)
    ,(1.,1.)
    ,(0.707106781187,0.707106781187)
,(1.,1.))) REPRESENTATION_ITEM('') SURFACE() );
#133 = CARTESIAN_POINT('',(88.63890435707,-8.10372003608E-07,
    1.05206742244));
#134 = CARTESIAN_POINT('',(88.63890435707,-8.10372003608E-07,
    -1.587118763524E-02));
#135 = CARTESIAN_POINT('',(88.63890435707,-12.60167640925,1.05206742244)
  );
#136 = CARTESIAN_POINT('',(88.63890435707,-12.60167640925,
    -1.587118763524E-02));
#137 = CARTESIAN_POINT('',(76.037228758185,-12.60167640925,1.05206742244
    ));
#138 = CARTESIAN_POINT('',(76.037228758185,-12.60167640925,
    -1.587118763524E-02));
#139 = CARTESIAN_POINT('',(63.435553159299,-12.60167640925,1.05206742244
    ));
#140 = CARTESIAN_POINT('',(63.435553159299,-12.60167640925,
    -1.587118763524E-02));
#141 = CARTESIAN_POINT('',(63.435553159299,-8.103720082377E-07,
    1.05206742244));
#142 = CARTESIAN_POINT('',(63.435553159299,-8.103720082377E-07,
    -1.587118763524E-02));
#143 = ADVANCED_FACE('',(#144),#158,.F.);
#144 = FACE_BOUND('',#145,.F.);
#145 = EDGE_LOOP('',(#146,#147,#152,#153));
#146 = ORIENTED_EDGE('',*,*,#43,.F.);
#147 = ORIENTED_EDGE('',*,*,#148,.F.);
#148 = EDGE_CURVE('',#96,#44,#149,.T.);
#149 = B_SPLINE_CURVE_WITH_KNOTS('',1,(#150,#151),.UNSPECIFIED.,.F.,.F.,
  (2,2),(0.,1.),.PIECEWISE_BEZIER_KNOTS.);
#150 = CARTESIAN_POINT('',(87.570965746995,-8.103720058575E-07,
    1.05206742244));
#151 = CARTESIAN_POINT('',(87.570965746995,-8.103720058575E-07,
    -1.587118763524E-02));
#152 = ORIENTED_EDGE('',*,*,#93,.F.);
#153 = ORIENTED_EDGE('',*,*,#154,.T.);
#154 = EDGE_CURVE('',#94,#46,#155,.T.);
#155 = B_SPLINE_CURVE_WITH_KNOTS('',1,(#156,#157),.UNSPECIFIED.,.F.,.F.,
  (2,2),(0.,1.),.PIECEWISE_BEZIER_KNOTS.);
#156 = CARTESIAN_POINT('',(64.503491769374,-8.10372004445E-07,
    1.05206742244));
#157 = CARTESIAN_POINT('',(64.503491769374,-8.10372004445E-07,
    -1.587118763524E-02));
#158 = ( BOUNDED_SURFACE() B_SPLINE_SURFACE(2,1,(
    (#159,#160)
    ,(#161,#162)
    ,(#163,#164)
    ,(#165,#166)
,(#167,#168
    )),.UNSPECIFIED.,.F.,.F.,.F.) B_SPLINE_SURFACE_WITH_KNOTS((3,2,3),(2
    ,2),(3.14159265359,4.712388980385,6.28318530718),(21.,22.),
.PIECEWISE_BEZIER_KNOTS.) GEOMETRIC_REPRESENTATION_ITEM() 
RATIONAL_B_SPLINE_SURFACE((
    (1.,1.)
    ,(0.707106781187,0.707106781187)
    ,(1.,1.)
    ,(0.707106781187,0.707106781187)
,(1.,1.))) REPRESENTATION_ITEM('') SURFACE() );
#159 = CARTESIAN_POINT('',(64.503491769374,-8.10372004445E-07,
    -1.587118763524E-02));
#160 = CARTESIAN_POINT('',(64.503491769374,-8.10372004445E-07,
    1.05206742244));
#161 = CARTESIAN_POINT('',(64.503491769374,-11.53373779918,
    -1.587118763524E-02));
#162 = CARTESIAN_POINT('',(64.503491769374,-11.53373779918,1.05206742244
    ));
#163 = CARTESIAN_POINT('',(76.037228758185,-11.53373779918,
    -1.587118763524E-02));
#164 = CARTESIAN_POINT('',(76.037228758185,-11.53373779918,1.05206742244
    ));
#165 = CARTESIAN_POINT('',(87.570965746995,-11.53373779918,
    -1.587118763524E-02));
#166 = CARTESIAN_POINT('',(87.570965746995,-11.53373779918,1.05206742244
    ));
#167 = CARTESIAN_POINT('',(87.570965746995,-8.103720086824E-07,
    -1.587118763524E-02));
#168 = CARTESIAN_POINT('',(87.570965746995,-8.103720086824E-07,
    1.05206742244));
#169 = ADVANCED_FACE('',(#170),#176,.T.);
#170 = FACE_BOUND('',#171,.T.);
#171 = EDGE_LOOP('',(#172,#173,#174,#175));
#172 = ORIENTED_EDGE('',*,*,#121,.F.);
#173 = ORIENTED_EDGE('',*,*,#21,.F.);
#174 = ORIENTED_EDGE('',*,*,#127,.T.);
#175 = ORIENTED_EDGE('',*,*,#71,.F.);
#176 = ( BOUNDED_SURFACE() B_SPLINE_SURFACE(2,1,(
    (#177,#178)
    ,(#179,#180)
    ,(#181,#182)
    ,(#183,#184)
,(#185,#186
    )),.UNSPECIFIED.,.F.,.F.,.F.) B_SPLINE_SURFACE_WITH_KNOTS((3,2,3),(2
    ,2),(0.,1.570796326795,3.14159265359),(0.4,1.4),
.PIECEWISE_BEZIER_KNOTS.) GEOMETRIC_REPRESENTATION_ITEM() 
RATIONAL_B_SPLINE_SURFACE((
    (1.,1.)
    ,(0.707106781187,0.707106781187)
    ,(1.,1.)
    ,(0.707106781187,0.707106781187)
,(1.,1.))) REPRESENTATION_ITEM('') SURFACE() );
#177 = CARTESIAN_POINT('',(63.435553159299,-8.103720051512E-07,
    1.05206742244));
#178 = CARTESIAN_POINT('',(63.435553159299,-8.103720051512E-07,
    -1.587118763524E-02));
#179 = CARTESIAN_POINT('',(63.435553159299,12.601674788513,1.05206742244
    ));
#180 = CARTESIAN_POINT('',(63.435553159299,12.601674788513,
    -1.587118763524E-02));
#181 = CARTESIAN_POINT('',(76.037228758185,12.601674788513,1.05206742244
    ));
#182 = CARTESIAN_POINT('',(76.037228758185,12.601674788513,
    -1.587118763524E-02));
#183 = CARTESIAN_POINT('',(88.63890435707,12.601674788513,1.05206742244)
  );
#184 = CARTESIAN_POINT('',(88.63890435707,12.601674788513,
    -1.587118763524E-02));
#185 = CARTESIAN_POINT('',(88.63890435707,-8.10372003608E-07,
    1.05206742244));
#186 = CARTESIAN_POINT('',(88.63890435707,-8.10372003608E-07,
    -1.587118763524E-02));
#187 = ADVANCED_FACE('',(#188),#194,.F.);
#188 = FACE_BOUND('',#189,.F.);
#189 = EDGE_LOOP('',(#190,#191,#192,#193));
#190 = ORIENTED_EDGE('',*,*,#105,.F.);
#191 = ORIENTED_EDGE('',*,*,#148,.T.);
#192 = ORIENTED_EDGE('',*,*,#55,.F.);
#193 = ORIENTED_EDGE('',*,*,#154,.F.);
#194 = ( BOUNDED_SURFACE() B_SPLINE_SURFACE(2,1,(
    (#195,#196)
    ,(#197,#198)
    ,(#199,#200)
    ,(#201,#202)
,(#203,#204
    )),.UNSPECIFIED.,.F.,.F.,.F.) B_SPLINE_SURFACE_WITH_KNOTS((3,2,3),(2
    ,2),(0.,1.570796326795,3.14159265359),(21.,22.),
.PIECEWISE_BEZIER_KNOTS.) GEOMETRIC_REPRESENTATION_ITEM() 
RATIONAL_B_SPLINE_SURFACE((
    (1.,1.)
    ,(0.707106781187,0.707106781187)
    ,(1.,1.)
    ,(0.707106781187,0.707106781187)
,(1.,1.))) REPRESENTATION_ITEM('') SURFACE() );
#195 = CARTESIAN_POINT('',(87.570965746995,-8.103720058575E-07,
    -1.587118763524E-02));
#196 = CARTESIAN_POINT('',(87.570965746995,-8.103720058575E-07,
    1.05206742244));
#197 = CARTESIAN_POINT('',(87.570965746995,11.533736178438,
    -1.587118763524E-02));
#198 = CARTESIAN_POINT('',(87.570965746995,11.533736178438,1.05206742244
    ));
#199 = CARTESIAN_POINT('',(76.037228758185,11.533736178438,
    -1.587118763524E-02));
#200 = CARTESIAN_POINT('',(76.037228758185,11.533736178438,1.05206742244
    ));
#201 = CARTESIAN_POINT('',(64.503491769374,11.533736178438,
    -1.587118763524E-02));
#202 = CARTESIAN_POINT('',(64.503491769374,11.533736178438,1.05206742244
    ));
#203 = CARTESIAN_POINT('',(64.503491769374,-8.10372004445E-07,
    -1.587118763524E-02));
#204 = CARTESIAN_POINT('',(64.503491769374,-8.10372004445E-07,
    1.05206742244));
#205 = ( GEOMETRIC_REPRESENTATION_CONTEXT(3) 
GLOBAL_UNCERTAINTY_ASSIGNED_CONTEXT((#209)) GLOBAL_UNIT_ASSIGNED_CONTEXT
((#206,#207,#208)) REPRESENTATION_CONTEXT('Context #1',
  '3D Context with UNIT and UNCERTAINTY') );
#206 = ( LENGTH_UNIT() NAMED_UNIT(*) SI_UNIT(.MILLI.,.METRE.) );
#207 = ( NAMED_UNIT(*) PLANE_ANGLE_UNIT() SI_UNIT($,.RADIAN.) );
#208 = ( NAMED_UNIT(*) SI_UNIT($,.STERADIAN.) SOLID_ANGLE_UNIT() );
#209 = UNCERTAINTY_MEASURE_WITH_UNIT(LENGTH_MEASURE(1.E-07),#206,
  'distance_accuracy_value','confusion accuracy');
#210 = PRODUCT_RELATED_PRODUCT_CATEGORY('part',$,(#7));
ENDSEC;
END-ISO-10303-21;
