ISO-10303-21;
HEADER;
FILE_DESCRIPTION(('FreeCAD Model'),'2;1');
FILE_NAME('Open CASCADE Shape Model','2025-04-17T11:57:57',('FreeCAD'),(
    'FreeCAD'),'Open CASCADE STEP processor 7.6','FreeCAD','Unknown');
FILE_SCHEMA(('AUTOMOTIVE_DESIGN { 1 0 10303 214 1 1 1 1 }'));
ENDSEC;
DATA;
#1 = APPLICATION_PROTOCOL_DEFINITION('international standard',
  'automotive_design',2000,#2);
#2 = APPLICATION_CONTEXT(
  'core data for automotive mechanical design processes');
#3 = SHAPE_DEFINITION_REPRESENTATION(#4,#10);
#4 = PRODUCT_DEFINITION_SHAPE('','',#5);
#5 = PRODUCT_DEFINITION('design','',#6,#9);
#6 = PRODUCT_DEFINITION_FORMATION('','',#7);
#7 = PRODUCT('Open CASCADE STEP translator 7.6 1',
  'Open CASCADE STEP translator 7.6 1','',(#8));
#8 = PRODUCT_CONTEXT('',#2,'mechanical');
#9 = PRODUCT_DEFINITION_CONTEXT('part definition',#2,'design');
#10 = ADVANCED_BREP_SHAPE_REPRESENTATION('',(#11,#15),#169);
#11 = AXIS2_PLACEMENT_3D('',#12,#13,#14);
#12 = CARTESIAN_POINT('',(0.,0.,0.));
#13 = DIRECTION('',(0.,0.,1.));
#14 = DIRECTION('',(1.,0.,-0.));
#15 = MANIFOLD_SOLID_BREP('',#16);
#16 = CLOSED_SHELL('',(#17,#69,#110,#119,#160));
#17 = ADVANCED_FACE('',(#18),#50,.T.);
#18 = FACE_BOUND('',#19,.T.);
#19 = EDGE_LOOP('',(#20,#32,#39,#49));
#20 = ORIENTED_EDGE('',*,*,#21,.T.);
#21 = EDGE_CURVE('',#22,#22,#24,.T.);
#22 = VERTEX_POINT('',#23);
#23 = CARTESIAN_POINT('',(5.863406459823,7.180601176334E-16,
    -279.2098314201));
#24 = ( BOUNDED_CURVE() B_SPLINE_CURVE(2,(#25,#26,#27,#28,#29,#30,#31),
.UNSPECIFIED.,.T.,.F.) B_SPLINE_CURVE_WITH_KNOTS((3,2,2,3),(
    3.14159265359,5.235987755983,7.330382858376,9.424777960769),
.PIECEWISE_BEZIER_KNOTS.) CURVE() GEOMETRIC_REPRESENTATION_ITEM() 
RATIONAL_B_SPLINE_CURVE((1.,0.5,1.,0.5,1.,0.5,1.)) REPRESENTATION_ITEM(
  '') );
#25 = CARTESIAN_POINT('',(5.863406459823,-7.180601953122E-16,
    -279.2098314201));
#26 = CARTESIAN_POINT('',(5.863406459823,10.155717893841,-279.2098314201
    ));
#27 = CARTESIAN_POINT('',(-2.931703229911,5.07785894692,-279.2098314201)
  );
#28 = CARTESIAN_POINT('',(-11.72681291964,1.328774294834E-14,
    -279.2098314201));
#29 = CARTESIAN_POINT('',(-2.931703229911,-5.07785894692,-279.2098314201
    ));
#30 = CARTESIAN_POINT('',(5.863406459823,-10.15571789384,-279.2098314201
    ));
#31 = CARTESIAN_POINT('',(5.863406459823,-1.256968275303E-14,
    -279.2098314201));
#32 = ORIENTED_EDGE('',*,*,#33,.T.);
#33 = EDGE_CURVE('',#22,#34,#36,.T.);
#34 = VERTEX_POINT('',#35);
#35 = CARTESIAN_POINT('',(6.980245785504,-8.54833566443E-16,
    -278.0929920944));
#36 = B_SPLINE_CURVE_WITH_KNOTS('',1,(#37,#38),.UNSPECIFIED.,.F.,.F.,(2,
    2),(-0.718420489686,0.718420489686),.PIECEWISE_BEZIER_KNOTS.);
#37 = CARTESIAN_POINT('',(5.863406460324,-7.180601953736E-16,
    -279.2098314206));
#38 = CARTESIAN_POINT('',(6.980245785002,-8.548335657865E-16,
    -278.0929920939));
#39 = ORIENTED_EDGE('',*,*,#40,.T.);
#40 = EDGE_CURVE('',#34,#34,#41,.T.);
#41 = ( BOUNDED_CURVE() B_SPLINE_CURVE(2,(#42,#43,#44,#45,#46,#47,#48),
.UNSPECIFIED.,.T.,.F.) B_SPLINE_CURVE_WITH_KNOTS((3,2,2,3),(
    3.14159265359,5.235987755983,7.330382858376,9.424777960769),
.PIECEWISE_BEZIER_KNOTS.) CURVE() GEOMETRIC_REPRESENTATION_ITEM() 
RATIONAL_B_SPLINE_CURVE((1.,0.5,1.,0.5,1.,0.5,1.)) REPRESENTATION_ITEM(
  '') );
#42 = CARTESIAN_POINT('',(6.980245785504,8.548335658479E-16,
    -278.0929920944));
#43 = CARTESIAN_POINT('',(6.980245785504,-12.09014034981,-278.0929920944
    ));
#44 = CARTESIAN_POINT('',(-3.490122892752,-6.045070174905,
    -278.0929920944));
#45 = CARTESIAN_POINT('',(-13.960491571,-1.581874160517E-14,
    -278.0929920944));
#46 = CARTESIAN_POINT('',(-3.490122892752,6.045070174905,-278.0929920944
    ));
#47 = CARTESIAN_POINT('',(6.980245785503,12.090140349811,-278.0929920944
    ));
#48 = CARTESIAN_POINT('',(6.980245785504,1.496390803932E-14,
    -278.0929920944));
#49 = ORIENTED_EDGE('',*,*,#33,.F.);
#50 = ( BOUNDED_SURFACE() B_SPLINE_SURFACE(2,1,(
    (#51,#52)
    ,(#53,#54)
    ,(#55,#56)
    ,(#57,#58)
    ,(#59,#60)
    ,(#61,#62)
    ,(#63,#64)
    ,(#65,#66)
,(#67,#68
    )),.UNSPECIFIED.,.T.,.F.,.F.) B_SPLINE_SURFACE_WITH_KNOTS((3,2,2,2,3
    ),(2,2),(3.14159265359,4.188790204786,6.28318530718,8.377580409573,
    9.424777960769),(-0.718420489686,0.718420489686),.UNSPECIFIED.) 
GEOMETRIC_REPRESENTATION_ITEM() RATIONAL_B_SPLINE_SURFACE((
    (0.75,0.75)
    ,(0.75,0.75)
    ,(1.,1.)
    ,(0.5,0.5)
    ,(1.,1.)
    ,(0.5,0.5)
    ,(1.,1.)
    ,(0.75,0.75)
,(0.75,0.75))) REPRESENTATION_ITEM('') SURFACE() );
#51 = CARTESIAN_POINT('',(5.863406460324,0.,-279.2098314206));
#52 = CARTESIAN_POINT('',(6.980245785002,0.,-278.0929920939));
#53 = CARTESIAN_POINT('',(5.863406460324,3.385239298236,-279.2098314206)
  );
#54 = CARTESIAN_POINT('',(6.980245785002,4.030046782981,-278.0929920939)
  );
#55 = CARTESIAN_POINT('',(2.931703230162,5.077858947354,-279.2098314206)
  );
#56 = CARTESIAN_POINT('',(3.490122892501,6.045070174471,-278.0929920939)
  );
#57 = CARTESIAN_POINT('',(-5.863406460324,10.155717894709,
    -279.2098314206));
#58 = CARTESIAN_POINT('',(-6.980245785002,12.090140348943,
    -278.0929920939));
#59 = CARTESIAN_POINT('',(-5.863406460324,0.,-279.2098314206));
#60 = CARTESIAN_POINT('',(-6.980245785002,0.,-278.0929920939));
#61 = CARTESIAN_POINT('',(-5.863406460324,-10.1557178947,-279.2098314206
    ));
#62 = CARTESIAN_POINT('',(-6.980245785002,-12.09014034894,
    -278.0929920939));
#63 = CARTESIAN_POINT('',(2.931703230162,-5.077858947354,-279.2098314206
    ));
#64 = CARTESIAN_POINT('',(3.490122892501,-6.045070174471,-278.0929920939
    ));
#65 = CARTESIAN_POINT('',(5.863406460324,-3.385239298236,-279.2098314206
    ));
#66 = CARTESIAN_POINT('',(6.980245785002,-4.030046782981,-278.0929920939
    ));
#67 = CARTESIAN_POINT('',(5.863406460324,0.,-279.2098314206));
#68 = CARTESIAN_POINT('',(6.980245785002,0.,-278.0929920939));
#69 = ADVANCED_FACE('',(#70),#91,.T.);
#70 = FACE_BOUND('',#71,.T.);
#71 = EDGE_LOOP('',(#72,#84,#89,#90));
#72 = ORIENTED_EDGE('',*,*,#73,.F.);
#73 = EDGE_CURVE('',#74,#74,#76,.T.);
#74 = VERTEX_POINT('',#75);
#75 = CARTESIAN_POINT('',(6.980245785504,8.54833566443E-16,
    -1.116839325681));
#76 = ( BOUNDED_CURVE() B_SPLINE_CURVE(2,(#77,#78,#79,#80,#81,#82,#83),
.UNSPECIFIED.,.T.,.F.) B_SPLINE_CURVE_WITH_KNOTS((3,2,2,3),(
    3.14159265359,5.235987755983,7.330382858376,9.424777960769),
.PIECEWISE_BEZIER_KNOTS.) CURVE() GEOMETRIC_REPRESENTATION_ITEM() 
RATIONAL_B_SPLINE_CURVE((1.,0.5,1.,0.5,1.,0.5,1.)) REPRESENTATION_ITEM(
  '') );
#77 = CARTESIAN_POINT('',(6.980245785504,-8.548335658479E-16,
    -1.116839325681));
#78 = CARTESIAN_POINT('',(6.980245785504,12.090140349811,-1.116839325681
    ));
#79 = CARTESIAN_POINT('',(-3.490122892752,6.045070174905,-1.116839325681
    ));
#80 = CARTESIAN_POINT('',(-13.960491571,1.581874160517E-14,
    -1.116839325681));
#81 = CARTESIAN_POINT('',(-3.490122892752,-6.045070174905,
    -1.116839325681));
#82 = CARTESIAN_POINT('',(6.980245785503,-12.09014034981,-1.116839325681
    ));
#83 = CARTESIAN_POINT('',(6.980245785504,-1.496390803932E-14,
    -1.116839325681));
#84 = ORIENTED_EDGE('',*,*,#85,.T.);
#85 = EDGE_CURVE('',#74,#34,#86,.T.);
#86 = B_SPLINE_CURVE_WITH_KNOTS('',1,(#87,#88),.UNSPECIFIED.,.F.,.F.,(2,
    2),(1.016,252.984),.PIECEWISE_BEZIER_KNOTS.);
#87 = CARTESIAN_POINT('',(6.980245785504,8.548335658479E-16,
    -1.116839325681));
#88 = CARTESIAN_POINT('',(6.980245785504,8.548335658479E-16,
    -278.0929920944));
#89 = ORIENTED_EDGE('',*,*,#40,.F.);
#90 = ORIENTED_EDGE('',*,*,#85,.F.);
#91 = ( BOUNDED_SURFACE() B_SPLINE_SURFACE(2,1,(
    (#92,#93)
    ,(#94,#95)
    ,(#96,#97)
    ,(#98,#99)
    ,(#100,#101)
    ,(#102,#103)
    ,(#104,#105)
    ,(#106,#107)
,(#108,#109
    )),.UNSPECIFIED.,.T.,.F.,.F.) B_SPLINE_SURFACE_WITH_KNOTS((3,2,2,2,3
    ),(2,2),(3.14159265359,4.188790204786,6.28318530718,8.377580409573,
    9.424777960769),(1.016,252.984),.UNSPECIFIED.) 
GEOMETRIC_REPRESENTATION_ITEM() RATIONAL_B_SPLINE_SURFACE((
    (0.75,0.75)
    ,(0.75,0.75)
    ,(1.,1.)
    ,(0.5,0.5)
    ,(1.,1.)
    ,(0.5,0.5)
    ,(1.,1.)
    ,(0.75,0.75)
,(0.75,0.75))) REPRESENTATION_ITEM('') SURFACE() );
#92 = CARTESIAN_POINT('',(6.980245785504,3.254437622513E-16,
    -1.116839325681));
#93 = CARTESIAN_POINT('',(6.980245785504,3.254437622513E-16,
    -278.0929920944));
#94 = CARTESIAN_POINT('',(6.980245785504,-4.03004678327,-1.116839325681)
  );
#95 = CARTESIAN_POINT('',(6.980245785504,-4.03004678327,-278.0929920944)
  );
#96 = CARTESIAN_POINT('',(3.490122892752,-6.045070174905,-1.116839325681
    ));
#97 = CARTESIAN_POINT('',(3.490122892752,-6.045070174905,-278.0929920944
    ));
#98 = CARTESIAN_POINT('',(-6.980245785503,-12.09014034981,
    -1.116839325681));
#99 = CARTESIAN_POINT('',(-6.980245785503,-12.09014034981,
    -278.0929920944));
#100 = CARTESIAN_POINT('',(-6.980245785504,0.,-1.116839325681));
#101 = CARTESIAN_POINT('',(-6.980245785504,0.,-278.0929920944));
#102 = CARTESIAN_POINT('',(-6.980245785504,12.090140349811,
    -1.116839325681));
#103 = CARTESIAN_POINT('',(-6.980245785504,12.090140349811,
    -278.0929920944));
#104 = CARTESIAN_POINT('',(3.490122892752,6.045070174905,-1.116839325681
    ));
#105 = CARTESIAN_POINT('',(3.490122892752,6.045070174905,-278.0929920944
    ));
#106 = CARTESIAN_POINT('',(6.980245785504,4.03004678327,-1.116839325681)
  );
#107 = CARTESIAN_POINT('',(6.980245785504,4.03004678327,-278.0929920944)
  );
#108 = CARTESIAN_POINT('',(6.980245785504,3.254437622513E-16,
    -1.116839325681));
#109 = CARTESIAN_POINT('',(6.980245785504,3.254437622513E-16,
    -278.0929920944));
#110 = ADVANCED_FACE('',(#111),#114,.T.);
#111 = FACE_BOUND('',#112,.T.);
#112 = EDGE_LOOP('',(#113));
#113 = ORIENTED_EDGE('',*,*,#21,.F.);
#114 = B_SPLINE_SURFACE_WITH_KNOTS('',1,1,(
    (#115,#116)
    ,(#117,#118
    )),.UNSPECIFIED.,.F.,.F.,.F.,(2,2),(2,2),(-5.334,5.334),(-5.334,
    5.334),.PIECEWISE_BEZIER_KNOTS.);
#115 = CARTESIAN_POINT('',(5.863406459823,-5.863406459823,
    -279.2098314201));
#116 = CARTESIAN_POINT('',(5.863406459823,5.863406459823,-279.2098314201
    ));
#117 = CARTESIAN_POINT('',(-5.863406459823,-5.863406459823,
    -279.2098314201));
#118 = CARTESIAN_POINT('',(-5.863406459823,5.863406459823,
    -279.2098314201));
#119 = ADVANCED_FACE('',(#120),#141,.T.);
#120 = FACE_BOUND('',#121,.T.);
#121 = EDGE_LOOP('',(#122,#134,#139,#140));
#122 = ORIENTED_EDGE('',*,*,#123,.T.);
#123 = EDGE_CURVE('',#124,#124,#126,.T.);
#124 = VERTEX_POINT('',#125);
#125 = CARTESIAN_POINT('',(5.863406459823,-7.180601176334E-16,0.));
#126 = ( BOUNDED_CURVE() B_SPLINE_CURVE(2,(#127,#128,#129,#130,#131,#132
,#133),.UNSPECIFIED.,.T.,.F.) B_SPLINE_CURVE_WITH_KNOTS((3,2,2,3),(
    3.14159265359,5.235987755983,7.330382858376,9.424777960769),
.PIECEWISE_BEZIER_KNOTS.) CURVE() GEOMETRIC_REPRESENTATION_ITEM() 
RATIONAL_B_SPLINE_CURVE((1.,0.5,1.,0.5,1.,0.5,1.)) REPRESENTATION_ITEM(
  '') );
#127 = CARTESIAN_POINT('',(5.863406459823,7.180601953122E-16,0.));
#128 = CARTESIAN_POINT('',(5.863406459823,-10.15571789384,0.));
#129 = CARTESIAN_POINT('',(-2.931703229911,-5.07785894692,0.));
#130 = CARTESIAN_POINT('',(-11.72681291964,-1.328774294834E-14,0.));
#131 = CARTESIAN_POINT('',(-2.931703229911,5.07785894692,0.));
#132 = CARTESIAN_POINT('',(5.863406459823,10.155717893841,0.));
#133 = CARTESIAN_POINT('',(5.863406459823,1.256968275303E-14,0.));
#134 = ORIENTED_EDGE('',*,*,#135,.T.);
#135 = EDGE_CURVE('',#124,#74,#136,.T.);
#136 = B_SPLINE_CURVE_WITH_KNOTS('',1,(#137,#138),.UNSPECIFIED.,.F.,.F.,
  (2,2),(-0.718420489686,0.718420489686),.PIECEWISE_BEZIER_KNOTS.);
#137 = CARTESIAN_POINT('',(5.863406460324,7.180601953736E-16,
    5.011528021533E-10));
#138 = CARTESIAN_POINT('',(6.980245785002,8.548335657865E-16,
    -1.116839326182));
#139 = ORIENTED_EDGE('',*,*,#73,.T.);
#140 = ORIENTED_EDGE('',*,*,#135,.F.);
#141 = ( BOUNDED_SURFACE() B_SPLINE_SURFACE(2,1,(
    (#142,#143)
    ,(#144,#145)
    ,(#146,#147)
    ,(#148,#149)
    ,(#150,#151)
    ,(#152,#153)
    ,(#154,#155)
    ,(#156,#157)
,(#158,#159
    )),.UNSPECIFIED.,.T.,.F.,.F.) B_SPLINE_SURFACE_WITH_KNOTS((3,2,2,2,3
    ),(2,2),(3.14159265359,4.188790204786,6.28318530718,8.377580409573,
    9.424777960769),(-0.718420489686,0.718420489686),.UNSPECIFIED.) 
GEOMETRIC_REPRESENTATION_ITEM() RATIONAL_B_SPLINE_SURFACE((
    (0.75,0.75)
    ,(0.75,0.75)
    ,(1.,1.)
    ,(0.5,0.5)
    ,(1.,1.)
    ,(0.5,0.5)
    ,(1.,1.)
    ,(0.75,0.75)
,(0.75,0.75))) REPRESENTATION_ITEM('') SURFACE() );
#142 = CARTESIAN_POINT('',(5.863406460324,0.,5.011528021533E-10));
#143 = CARTESIAN_POINT('',(6.980245785002,0.,-1.116839326182));
#144 = CARTESIAN_POINT('',(5.863406460324,-3.385239298236,
    5.011528021533E-10));
#145 = CARTESIAN_POINT('',(6.980245785002,-4.030046782981,
    -1.116839326182));
#146 = CARTESIAN_POINT('',(2.931703230162,-5.077858947354,
    5.011528021533E-10));
#147 = CARTESIAN_POINT('',(3.490122892501,-6.045070174471,
    -1.116839326182));
#148 = CARTESIAN_POINT('',(-5.863406460324,-10.1557178947,
    5.011528021533E-10));
#149 = CARTESIAN_POINT('',(-6.980245785002,-12.09014034894,
    -1.116839326182));
#150 = CARTESIAN_POINT('',(-5.863406460324,0.,5.011528021533E-10));
#151 = CARTESIAN_POINT('',(-6.980245785002,0.,-1.116839326182));
#152 = CARTESIAN_POINT('',(-5.863406460324,10.155717894709,
    5.011528021533E-10));
#153 = CARTESIAN_POINT('',(-6.980245785002,12.090140348943,
    -1.116839326182));
#154 = CARTESIAN_POINT('',(2.931703230162,5.077858947354,
    5.011528021533E-10));
#155 = CARTESIAN_POINT('',(3.490122892501,6.045070174471,-1.116839326182
    ));
#156 = CARTESIAN_POINT('',(5.863406460324,3.385239298236,
    5.011528021533E-10));
#157 = CARTESIAN_POINT('',(6.980245785002,4.030046782981,-1.116839326182
    ));
#158 = CARTESIAN_POINT('',(5.863406460324,0.,5.011528021533E-10));
#159 = CARTESIAN_POINT('',(6.980245785002,0.,-1.116839326182));
#160 = ADVANCED_FACE('',(#161),#164,.F.);
#161 = FACE_BOUND('',#162,.T.);
#162 = EDGE_LOOP('',(#163));
#163 = ORIENTED_EDGE('',*,*,#123,.F.);
#164 = B_SPLINE_SURFACE_WITH_KNOTS('',1,1,(
    (#165,#166)
    ,(#167,#168
    )),.UNSPECIFIED.,.F.,.F.,.F.,(2,2),(2,2),(-5.334,5.334),(-5.334,
    5.334),.PIECEWISE_BEZIER_KNOTS.);
#165 = CARTESIAN_POINT('',(5.863406459823,-5.863406459823,0.));
#166 = CARTESIAN_POINT('',(5.863406459823,5.863406459823,0.));
#167 = CARTESIAN_POINT('',(-5.863406459823,-5.863406459823,0.));
#168 = CARTESIAN_POINT('',(-5.863406459823,5.863406459823,0.));
#169 = ( GEOMETRIC_REPRESENTATION_CONTEXT(3) 
GLOBAL_UNCERTAINTY_ASSIGNED_CONTEXT((#173)) GLOBAL_UNIT_ASSIGNED_CONTEXT
((#170,#171,#172)) REPRESENTATION_CONTEXT('Context #1',
  '3D Context with UNIT and UNCERTAINTY') );
#170 = ( LENGTH_UNIT() NAMED_UNIT(*) SI_UNIT(.MILLI.,.METRE.) );
#171 = ( NAMED_UNIT(*) PLANE_ANGLE_UNIT() SI_UNIT($,.RADIAN.) );
#172 = ( NAMED_UNIT(*) SI_UNIT($,.STERADIAN.) SOLID_ANGLE_UNIT() );
#173 = UNCERTAINTY_MEASURE_WITH_UNIT(LENGTH_MEASURE(1.E-05),#170,
  'distance_accuracy_value','confusion accuracy');
#174 = PRODUCT_RELATED_PRODUCT_CATEGORY('part',$,(#7));
ENDSEC;
END-ISO-10303-21;
